PrimaNota.ru - самый крупный в мире бесплатный архив песенных текстов, аккордов, табулатур и нот


Morning Musume Otomegumi - Pyoko Pyoko Ultra - таба, видео

Регистрация Запомнить меня
Войти через:  Facebook Google Twitter Vk Yandex Mail.ru

Morning Musume Otomegumi - Pyoko Pyoko Ultra - таба, видео

Печатать
Просмотров: 36
Pyoko Pyoko Ultra
by Morning Musume
tabbed by manOutOfTime
key: Bm

**CAPO 1**

Yay~
INTRO
||-2---2---2---2---0-0-||-3-2-0-------0----2-2352----0---|--3-2-0-----0------|
||-3---3---3---3---1-1-||-------3-2-23-2---------4-23-2--|--------3-23---02--|
||---------------------||---------------2--------------2-|-------------2---2-|
||---0---0---0---0-----||--------------------------------|-------------------|
||---------------------||--------------------------------|-------------------|
||---------------------||--------------------------------|-------------------|

-|-2-3-2-3-2-3-2-3-0-0-|-2-3-2-3-2-3-2-3-2vv-|-------------------------------|
-|-3---3---3---3---1-1-|-3---3---3---3---3vv-|-------------------------------|
-|---------------------|---------------------|-------------------------------|
-|---------------------|---------------------|-------------------------------|
-|---------------------|---------------------|-------------------------------|
-|---------------------|---------------------|-------------------------------|

  D
Yume miteru
  Bm
Onnanoko
  G                     A       D
Yuutousei ni miete mo futsuu no choi ue

A A

  D
Medachitai
  Bm
Onnanoko
  G                          A
Motto kawaii ko ni naritai kirakira~
  D
Hajike te

A AA AA

  F#m
Nikka bouzu (Nikka bouzu)
 Bm
Iu dake banchou (Iu dake banchou)
 Em
Omoi koshi
 E
Akaranai wa
  D
Ganbari nasai
 A
Ima no watashi

----------33-55---------------------------------------------------------------|
-33-55-66---------------------------------------------------------------------|
------------------------------------------------------------------------------|
------------------------------------------------------------------------------|
------------------------------------------------------------------------------|
------------------------------------------------------------------------------|

  D
Koi shitai
  Bm
Onnanoko
 G
Ima wa mada chotto hayai ka
  A
Mousukoshi
  G   Em A  D
Jibun mi ga kou

---------66--5--3---------------------------------------------------------------|
-3-5-66-------------------------------------------------------------------------|
--------------------------------------------------------------------------------|
--------------------------------------------------------------------------------|
--------------------------------------------------------------------------------|
--------------------------------------------------------------------------------|

D               A
Yay yay yay yay Pyoko Pyoko JUMP
Bm              F#m
Yay yay yay yay Pyoko Pyoko JUMP
G       F#m      Em     A
Notteru kibun arawasuto kou naru no
D               A                 Bm
Yay yay yay yay Pyoko Pyoko JUMP
  A      D      G  Em A     D
A chotto naniyo wa ta shi nitte

-----------------5--5-4-5-4-5-------------------------------------------------|
-3--3-2-3-2-3-----------------------------------------------------------------|
------------------------------------------------------------------------------|
------------------------------------------------------------------------------|
------------------------------------------------------------------------------|
------------------------------------------------------------------------------|

G  Em A      D
Wa ra wa nai de

-2-22-22-22-2-0-0-||----------------------------------------------------------|
-3-33-33-33-3-1-1-||----------------------------------------------------------|
------------------||----------------------------------------------------------|
------------------||----------------------------------------------------------|
------------------||----------------------------------------------------------|
--------------x2--||----------------------------------------------------------|

Yay~
INTRO
-3-2-0-------0----2-2352----0---|--3-2-0-----0------|
-------3-2-23-2---------4-23-2--|--------3-23---02--|
---------------2--------------2-|-------------2---2-|
--------------------------------|-------------------|
--------------------------------|-------------------|
--------------------------------|-------------------|

-|-2-3-2-3-2-3-2-3-0-0-|-2-3-2-3-2-3-2-3-2vv---------------------------------|
-|-3---3---3---3---1-1-|-3---3---3---3---3vv---------------------------------|
-|---------------------|-----------------------------------------------------|
-|---------------------|-----------------------------------------------------|
-|---------------------|-----------------------------------------------------|
-|---------------------|-----------------------------------------------------|

 D
Tabi wo suru
  Bm
Onnanoko
  G
Kawaii ko nya tabi sa seroto
  A       D
Yoku itta monda wa

A A AA

   D
Shitsuren wo
  Bm
Onnanoko?
  G
Batchiri ike jo ni natte yaru
  A          D
Yousha wa shinai wa

A AA AA

F#m
Makenai wa (Makenai wa)
Bm
Mayonakano (Mayonakano)
  Em
Suitsu toka
  E
Ramen toka
  D
Yuuwaku ni
  A
Makecha na ra nu

----------33-55---------------------------------------------------------------|
-33-55-66---------------------------------------------------------------------|
------------------------------------------------------------------------------|
------------------------------------------------------------------------------|
------------------------------------------------------------------------------|
------------------------------------------------------------------------------|

 D
Aisaretai
  Bm
Onnanoko
  G                          A
Yasashi sasetenichi umarete arushin
   G   Em A D
Shitai da keyo

----------66--5-3---------------------------------------------------------------|
-3--5--66-----------------------------------------------------------------------|
--------------------------------------------------------------------------------|
--------------------------------------------------------------------------------|
--------------------------------------------------------------------------------|
--------------------------------------------------------------------------------|

D               A
Yay yay yay yay Urutora JUMP
Bm              F#m
Yay yay yay yay Urutora JUMP
G        F#m          Em     A
Atama no naka hyougen suruto kou naru no
D               A                 Bm
Yay yay yay yay Urutora JUMP
  A     D        G  Em A      D
Betsuni ii no yo wa ta shi mi te

-----------------5--5-4-5-4-5-------------------------------------------------|
-3--3-2-3-2-3-----------------------------------------------------------------|
------------------------------------------------------------------------------|
------------------------------------------------------------------------------|
------------------------------------------------------------------------------|
------------------------------------------------------------------------------|

G    Em  A  D
Hore chatte mo.

SOLO
---2---0-----------|---0---------------|---2---0----02----|-------------------|
-----2----323-0234-|-----0-2-21212-----|-----23--3-3--30--|-------------------|
-2-----------------|---------------210-|-2--------------2-|-------------------|
-------------------|-2-----------------|------------------|-------------------|
-------------------|-------------------|------------------|-------------------|
-------------------|-------------------|------------------|-------------------|


---0----0----------0-|----------0--|------------------------------------------|
-----023---2--02--3--|-/2--02--3---|------------------------------------------|
---------------------|-------------|------------------------------------------|
-2-------------------|-------------|------------------------------------------|
---------------------|-------------|------------------------------------------|
---------------------|-------------|------------------------------------------|

D               A
Yay yay yay yay Urutora JUMP
Bm              F#m
Yay yay yay yay Urutora JUMP
G        F#m          Em       A
Atama no naka hyougen suruto kou naru no
D               A                 Bm
Yay yay yay yay Urutora JUMP
  A     D        G  Em A     D
Betsuni ii no yo wa ta shi mite

-----------------5--5-4-5-4-5-------------------------------------------------|
-3--3-2-3-2-3-----------------------------------------------------------------|
------------------------------------------------------------------------------|
------------------------------------------------------------------------------|
------------------------------------------------------------------------------|
------------------------------------------------------------------------------|

G    Em A   D
Hore chatte mo

INTRO
||-2---2---2---2---0-0-||-3-2-0-------0----2-2352----0---|--3-2-0-----0------|
||-3---3---3---3---1-1-||-------3-2-23-2---------4-23-2--|--------3-23---02--|
||---------------------||---------------2--------------2-|-------------2---2-|
||---0---0---0---0-----||--------------------------------|-------------------|
||---------------------||--------------------------------|-------------------|
||---------------------||--------------------------------|-------------------|

||-2-3-2-3-2-3-2-3-0-0-||----------------------------------------------------|
||-3---3---3---3---1-1-||----------------------------------------------------|
||---------------------||----------------------------------------------------|
||---------------------||----------------------------------------------------|
||---------------------||----------------------------------------------------|
||-------------------x3||----------------------------------------------------|
Добавлено: 02.05.2016
Другие материалы по этой песне:
  • Аккорды и текст

Страница создана 02.05.2016
http://primanota.ru/morning-musume-otomegumi/pyoko-pyoko-ultra-chords.htm
Привет, Гость.
Предлагаем пройти революционный курс по гитаре.
Подарок от PrimaNota.Ru, забирай!