PrimaNota.ru - самый крупный в мире бесплатный архив песенных текстов, аккордов, табулатур и нот


Morning Musume Otomegumi - Pepper Keibu - таба, видео

Регистрация Запомнить меня
Войти через:  Facebook Google Twitter Vk Yandex Mail.ru

Morning Musume Otomegumi - Pepper Keibu - таба, видео

Печатать
Просмотров: 23
Pepper Keibu
by Morning Musume
tabbed by manOutOfTime
key: Bm

INTRO
-----------------|------------------|-------------------|-------------------|
-----------------|------------------|-------------------|-------------------|
-----------------|------------------|-------------------|-------------------|
-----------------|------------------|-------------------|-------------------|
---2--0--2--0--2-|---2--0--2--0--2--|---2--0--2--0--2---|-------------------|
-24--------------|-24---------------|-24----------------|-------------------|

------5---4---3--|-0-----2----------|--------------14---|-------------------|
-----------------|------------------|------------14-----|-------------------|
------7---6---5--|-2-----4----------|-------------------|-------------------|
-----------------|------------------|-------------------|-------------------|
---2-------------|------------------|-------------------|-------------------|
-24--------------|------------------|-------------------|-------------------|

-----------------|------------------|-------------------|------------------|
-----------------|------------------|-------------------|------------------|
-----------------|------------------|-------------------|------------------|
-----------------|---222-20-20---2--|-2-3---3--33-2-3-4-|----------5-4-----|
---222-20-20---2-|-2-----------2----|-----4---4--4------|------------------|
-2-----------2---|------------------|-------------------|------------------|
 Bm                Em                C#               F#      F#sus4 F#

Bm                G          D   B
Peppaa keibu jama wo shinai de
Em     F#
Peppaa keibu
Bm            A         G  F#  Bm
Watashi-tachi kore kara ii tokoro

Bm
Anata no kotoba ga chuusha no you ni
Em                   C#           F#
Watashi no kokoro ni shimiteiru Aa kiiteiru
Bm
Murasaki iro shita tasogaredoki ga
Em                 C# C# C# C#sus4 C#sus4    F#msus4 F#m F#msus4  F#m F#msus4
Gurabia mitai ni mieteiru Aa kanjiteru

G                               Bm
sono toki nano Moshi moshi kimi-tachi kaeri nasai to
    A    D    G
Futari wo hikisaku koe ga shita no yo aaa

F#-G   F#-G   F#-G   F#-G  F#

Bm                G         D   B
Peppaa keibu jama wo shinai de
Em     F#
Peppaa keibu
Bm            A         G  F#  Bm
Watashi-tachi kore kara ii tokoro

-----------------|------------------|-------------------|------------------|
-----------------|------------------|-------------------|------------------|
-----------------|------------------|-------------------|------------------|
-----------------|---222-20-20---2--|-2-3---3--33-2-3-4-|----------5-4-----|
---222-20-20---2-|-2-----------2----|-----4---4--4------|------------------|
-2-----------2---|------------------|-------------------|------------------|
 Bm                Em                C#               F#      F#sus4 F#

Bm                G         D   B
Peppaa keibu jama wo shinai de
Em     F#
Peppaa keibu
Bm            A         G  F#  Bm
Watashi-tachi kore kara ii tokoro

Bm
Aishiteiru yo to renpatsujuu ga
Em                   C#           F#
Watashi wo koroshite shimaisou aa makesou yo
Bm
Tokai no sora de wa kiseki no you na
Em                 C# C# C# C#sus4 C#sus4    F#msus4 F#m F#msus4  F#m F#msus4
Hoshizora hirogaru natsu no yoru Aa yume mitai

G                               Bm
Sono toki nano Moshi moshi kimi-tachi kaeri nasai to
    A    D    G
Yume kara utsutsu ni modosareta no yo aaa

F#-G   F#-G   F#-G   F#-G  F#

Bm                G         D   B
Peppaa keibu jama wo shinai de
Em     F#
Peppaa keibu
Bm            A         G  F#  Bm
Watashi-tachi kore kara ii tokoro

SOLO
Bm x4 bars

-10-----9------------7-----5-------------------5--10--77777-77-77-7---------|
----7------------------5--------------------5---------77777-77-77-7---------|
------9-----9p7h9--------7-----6p4h6-----4------------77777-77-77-7---------|
------------------------------------------------------99999-99-99-9---------|
------------------------------------------------------99999-99-99-9---------|
------------------------------------------------------77777-77-77-7---------|

Bm                G         D   B
Peppaa keibu jama wo shinai de
Em     F#
Peppaa keibu
Bm            A         G  F#  Bm
Watashi-tachi kore kara ii tokoro

-----------------|------------------|------------------|------------2------|
-----------------|------------------|------------------|------------3------|
-----------------|------------------|---0------------2-|-4-4-2-4----4------|
-----------------|---222-20-20---2--|-24-444-44444-45--|------------4------|
---222-20-20---2-|-2-----------2----|------------------|------------2------|
-2-----------2---|------------------|------------------|------------2------|
 Bm                Em                F#                  Bm
Добавлено: 02.05.2016
Другие материалы по этой песне:
  • Аккорды и текст

Страница создана 02.05.2016
http://primanota.ru/morning-musume-otomegumi/pepper-keibu-chords.htm
Привет, Гость.
Предлагаем пройти революционный курс по гитаре.
Подарок от PrimaNota.Ru, забирай!