PrimaNota.ru - самый крупный в мире бесплатный архив песенных текстов, аккордов, табулатур и нот


Morning Musume Otomegumi - Manatsu No Kousen - таба, видео

Регистрация Запомнить меня
Войти через:  Facebook Google Twitter Vk Yandex Mail.ru

Morning Musume Otomegumi - Manatsu No Kousen - таба, видео

Печатать
Просмотров: 23
Morning Musume - Manatsu No Kousen
Tabbed by manOutOfTime
Key: A

INTRO
-10\----|-77777-----------9-7v-----------------7-|----------------------------|
--------|-77777-9h10p9--7-------9---------9-10---|----------------------------|
--------|-77777-------------------9-11v----------|----------------------------|
--------|-99999----------------------------------|----------------------------|
--------|-99999----------------------------------|----------------------------|
--------|-77777----------------------------------|----------------------------|
                            Bm      F#m

-77777-----------9-7v--12--------------------|-------------------------------|
-77777-9h10p9--7----------12-11v--12-14------|-------------------------------|
-77777----------------------------------11v--|-------------------------------|
-99999---------------------------------------|-------------------------------|
-99999---------------------------------------|-------------------------------|
-77777---------------------------------------|-------------------------------|
                  Bm         A

-77777-------------9-7v----------------------|-------------------------------|
-77777--9h10p9---7------9-------9-9h10-12h14-|-------------------------------|
-77777--------------------9-11v--------------|-------------------------------|
-99999---------------------------------------|-------------------------------|
-99999---------------------------------------|-------------------------------|
-77777---------------------------------------|-------------------------------|
                    Bm     F#m

-77777-9-----------2-0-2---------------------|-------------------------------|
-77777---10p9h10v--------2p0---0-------------|-------------------------------|
-77777-----------------------2---2-4hhhhhhh--|-------------------------------|
-99999---------------------------------------|-------------------------------|
-99999---------------------------------------|-------------------------------|
-77777---------------------------------------|-------------------------------|
                Bm   A

---------9-------------------------------|----------------------------------|
-10p9h10---10p9--------------9-----------|----------------------------------|
----------------11p9-11p9h11---11p9------|-------6------------------6h7p6---|
------------------------------------11p9-|-7p6h7---7p6--------6h7h9-------9-|
-----------------------------------------|-------------9p7--9---------------|
-----------------------------------------|----------------------------------|
A                     F#m                  A                F#m
 

VERSE 1
A                 E      F#m
Ah--aoi sora ga hohoende kureta
        Bm                C#m D
DORAIBU nante GUDDO TAIMINGU
              C#m   E
Kon'na hi mo aru no ne

VERSE 2
A              E       F#m
Ah--ii koto ga kasanarisugiteru wa
       Bm    C#m  D
Ame otoko no kare ga
            C#m   C#
Kuchibue nante fuite Fu--

BRIDGE
          F#m
Sore demo iikka!
            A
Tsuite yuku wa
Bm         C#m      F#m
Choppiri sanmaime dakedo

CHORUS
D                        Dm
Ah--kyonen to kono natsu wa chigau wa
         C#m          F#m
Anata ga iru samishikunai
ENDORESU ENDORESU SAMAA

D                     Dm
Ah--hontou wa daisuki-tte min'na ni
       C#m            F#m
Sakebitai wa mado wo akete
ENDORESU ENDORESU SAMAA

Bm
HAIUEI kondemo
F#m      Dm
Chittomo kamawanai
Bm     D               Dm
Kaeritakunai no yo kon'ya
           F#m
ENDORESU SAMAA

INTRO

VERSE 3
A              E       F#m
Ah--aoi umi ga sukoshi miete kita
       Bm    C#m  D
Itsumo naraba zettai ni
            C#m   C#
Michi mayotte fukigen de Fu-

BRIDGE
         F#m
Hontou iu to
            A
Ki ni itteru wa
Bm         C#m      F#m
Tama ni donkusai toko ga

CHORUS
D                        Dm
Ah--futari de kono natsu no taiyou ni
         C#m          F#m
Oinori shiyou kono mama zutto
ENDORESU ENDORESU SAMAA

BREAK

CHORUS
D                        Dm
Ah--suteki na omoide ga anata to
         C#m          F#m
Mata fueta wa futari dake no
ENDORESU ENDORESU SAMAA

Bm
Kaerimichi ame demo
F#m      Dm
Chittomo kamawanai
Bm     D               Dm
Kiss shite kuretara kon'na
         F#m
ENDORESU SAMAA

INTRO 
Добавлено: 02.05.2016
Другие материалы по этой песне:
  • Аккорды и текст

Страница создана 02.05.2016
http://primanota.ru/morning-musume-otomegumi/manatsu-no-kousen-chords.htm
Привет, Гость.
Предлагаем пройти революционный курс по гитаре.
Подарок от PrimaNota.Ru, забирай!