PrimaNota.ru - самый крупный в мире бесплатный архив песенных текстов, аккордов, табулатур и нот


Morning Musume Otomegumi - Hey Mirai - таба, видео

Регистрация Запомнить меня
Войти через:  Facebook Google Twitter Vk Yandex Mail.ru

Morning Musume Otomegumi - Hey Mirai - таба, видео

Печатать
Просмотров: 25
HEY! Mirai
by Morning Musume
tabbed by manOutOfTime
key: Bb

HEY! mirai
------------------|----------------8-|----------------|-----------|
-11--10-----------|------8-10-8-10---|-11--10---------|-----------|
---------10-------|-8-10-------------|---------10-----|-12---10---|
------------------|------------------|----------------|-----------|
------------------|------------------|-------------13-|-----------|
------------------|------------------|----------------|-----------|

"saa, mirai ga hajimaru yo!"

------------------|----------------8-|-------------------|
-11--10-----------|------8-10-8-10---|-11--10-8-10-11----|
---------10-------|-8-10-------------|-------------------|
------------------|------------------|-------------------|
------------------|------------------|-------------------|
------------------|------------------|-------------------|

Bb
yuumei ni naritai!
Gm
tsuyoku naritai!
Bb             D#    F
yume wa itsumo mugen no kanousei

Bb
koi wo shitai!
Gm
KISS ga shitai
Bb             D#    F         Bb
mune wa itsumo takanaru shouraisei

D#       Bb      Gm
hanaseba nagai kedo
Cm    F Bb
kiite hoshii
D#        Dm     Gm
gakkou ja osowarenai
D#     Em        F
keiken no ETOSETORA

(WAO!)
Bb        F
HEY! kono machi wa
    D#                     Bb         F
watashitachi wo sodatete kureta basho ne
(iroiro to)
Bb        F
HEY! kono saki wa
    D#          Cm        Bb
watashitachi ga tsukuru mirai!

Intro Riff

Bb
chotto yasumanai?
Gm
kakko yokunai?
Bb              D#     F       Bb
joshi atsumarya subete ga gimonkei

D#       Bb      Gm
kotae wa hitotsu ja nai
Cm F   Bb
jinsei wa
D#       Bb      Gm
kekka ga subete ja nai ga
D#     Em            F
hajimenakya hajimannai

(WAO!)
Bb        F
HEY! kono sora wa
    D#                Bb         F
hyoujou wo mainichi kaetari suru ne
(iroiro to)
Bb        F
HEY! kono saki mo
    D#          Cm          Bb
watashitachi wo mimamotte yo

SOLO
--------------------------------|---------------------------------------------|
-11-----------------------------|-66-66-66------------66-66-66--------6--68---|
----10-12----10-----------------|-55-55-55-8578578578-55-55-55-8578-78--8-----|
----------13----12--13-12-10-12-|-33-33-33------------33-33-33----------------|
--------------------------------|---------------------------------------------|
-----------------------------x3-|---------------------------------------------|

---5--56-|--------------------------------------------------------------------|
-68--8---|--------------------------------------------------------------------|
---------|--------------------------------------------------------------------|
---------|--------------------------------------------------------------------|
---------|--------------------------------------------------------------------|
---------|--------------------------------------------------------------------|


(WAO!)
Bb        F
HEY! kono machi wa
    D#                     Bb         F
watashitachi wo sodatete kureta basho ne
(iroiro to)
Bb        F
HEY! kono saki wa
    D#          Cm          Bb
watashitachi ga tsukuru mirai!

Bb        F
HEY! kono sora wa
    D#                     Bb         F
hyoujou wo mainichi kaetari suru ne
(iroiro to)
Bb        F
HEY! kono saki mo
    D#          Cm          Bb
watashitachi wo mimamotte yo

INTRO

|--------------------------------------6--8-10-11--13-15-17--18-20-22-|
|---------------------------------8-10--------------------------------|
|-------------------------7-8-10--------------------------------------|
|-----------------7-8-10----------------------------------------------|
|---------6-8-10------------------------------------------------------|
|-6-8-10--------------------------------------------------------------|


|-18-------------------------------|-----------------------------------|
|----------------------------------|-----------------------------------|
|----------------------------------|-----------------------------------|
|-12-12--13-13--15-15--13-12-10-12-|-----------------------------------|
|-13-13--15-15--17-17--15-13-12-13-|-----------------------------------|
|----------------------------------|-----------------------------------|
Добавлено: 02.05.2016
Другие материалы по этой песне:
  • Аккорды и текст

Страница создана 02.05.2016
http://primanota.ru/morning-musume-otomegumi/hey-mirai-chords.htm
Привет, Гость.
Предлагаем пройти революционный курс по гитаре.
Подарок от PrimaNota.Ru, забирай!