PrimaNota.ru - самый крупный в мире бесплатный архив песенных текстов, аккордов, табулатур и нот


Morning Musume Otomegumi - Ai No Tane - таба, видео

Регистрация Запомнить меня
Войти через:  Facebook Google Twitter Vk Yandex Mail.ru

Morning Musume Otomegumi - Ai No Tane - таба, видео

Печатать
Просмотров: 24
Ai No Tane "Seeds of Love"
Morning Musume 1st release
Tabbed by manOutOfTime
Key: G

Bm/A x04432
C/B x20010
Cadd9 x32033

**Intro**
-------------|-------------|---------|---------|------------------------------|
-------10-12-|----------10-|-------8-|-------7-|------------------------------|
-12----------|-11----11----|-9---9---|-7---7---|------------------------------|
----12-------|----12-------|---9-----|---7-----|------------------------------|
-------------|-------------|---------|---------|------------------------------|
-------------|-------------|---------|---------|------------------------------|

----------|---------|---------|---------|-------------|-----------------------|
--------5-|-------3-|-------1-|---------|-0vvvv-3vvvv-|-----------------------|
--5---5---|-4---4---|-2---0---|-----2-4-|-2vvvv-------|-----------------------|
----5-----|---4-----|---2-----|-5-------|-2vvvv-------|-----------------------|
----------|---------|---------|---5-----|-0vvvv-------|-----------------------|
----------|---------|---------|---------|-------------|-----------------------|

**Chorus**
G   D
Saa dekakeyou
Em    Bm
Kitto todoku kara
C                Bm
Kami wo kitte, yume wo migaku
Am               D
Suki na sora wo, mezasu tame ni
G   D
Nee kaze ni nori
Em    Bm
Motto kagayaite
C            D              G  Dsus4 G  Dsus4
Ai no tane wo makichirashitai

**Verse**
G       D     Em     Bm  Bm/A  C
Itsu no ma ni namida wa kawaita
       D Am      D
Nanika wo nokoshite
G      D        Em Bm  Bm/A C
Nando demo egao ni nareru yo
       D Am      C C/B
Chikyuu ga mawaru kara

Am         C Gm         Dm
Yokan wo koe hajimaru kara
Am C        G G/F# Em   Dsus4 Asus4         C C/B C D
Atarashii kisetsu  wa   sukoshi ijiwaru

G   D    Em     Bm    Am   G
Yubisaki ni omoide wo tsumete
       C   D    G
Manikyua nuru kara

G  Dsus4 G  Dsus4

**Solo**
------------------------|------------------------|--------------------------|
-12-13-12v--------------|-12-13-12v--------------|-------------12-13-12-----|
-------------12----12b--|-----------12----12b\9--|-14v-1212-14----------12--|
----------------14------|--------------14--------|--------------------------|
------------------------|------------------------|--------------------------|
------------------------|------------------------|--------------------------|
G           C            G          C             Am           C

------------------------------|---------------------------------------------|
------------12b-r12-----------|---------------------------------------------|
--------------------12--------|---------------------------------------------|
-14v-12----------------14-12v-|---------------------------------------------|
--------15v-------------------|---------------------------------------------|
------------------------------|---------------------------------------------|
G           Dsus4


**Chorus**
G     D
Hora ki zuite yo
Em   Bm
Unto hikaru machi
C                 Bm
Kutsu wo erabi, kakedashitara
Am           D
Fuan wa mou, tokete iru kara
G     D
Moshi mayottemo
Em   Bm
Sou susumou yo
C            D              G
Jibun no michi saguridasu kara

Am         C Gm         Dm
Kowaresou na hitomi no naka
Am C        G G/F# Em   Dsus4 Asus4         C C/B C D
Furuwaseteta omoi      tsuyosa ni kaeyou

**Chorus**
G   D
Saa dekakeyou
Em    Bm
Kitto todoku kara
C                 Bm
Kami wo kitte, yume wo migaku
Am              D
Suki na sora wo, mezasu tame ni
G     D
Nee kaze ni nori
Em   Bm
Motto kagayaite
C            D
Ai no tane wo makichirashitai

G    D
Hora ki zuite yo
Em   Bm
Unto hikaru machi
C         Bm
Tobira akete, tobikomu toki
Am           D
Fuan wa mou, tokete iru kara
G     D
Moshi mayottemo
Em   Bm
Sou susumou yo
C            D
Jibun no michi saguridasu yo

G   D         Em    Bm
Saa dekakeyou kitto todoku kara
C                D
Kami wo kitte yume wo migaku
C            D                 G
Suki na sora wo, mezashiteru kara
Добавлено: 02.05.2016
Другие материалы по этой песне:
  • Аккорды и текст

Страница создана 02.05.2016
http://primanota.ru/morning-musume-otomegumi/ai-no-tane-chords.htm
Привет, Гость.
Предлагаем пройти революционный курс по гитаре.
Подарок от PrimaNota.Ru, забирай!