PrimaNota.ru - самый крупный в мире бесплатный архив песенных текстов, аккордов, табулатур и нот


Morning Musume Otomegumi - 321 Breakin Out - таба, видео

Регистрация Запомнить меня
Войти через:  Facebook Google Twitter Vk Yandex Mail.ru

Morning Musume Otomegumi - 321 Breakin Out - таба, видео

Печатать
Просмотров: 23
3,2,1, Breakin' Out by Morning Musume, tabbed by manOutOfTime
The number above the line indicates the riff to be played over it. Riffs introduced when 
first played. Fun song!

Intro
                     **Riff 1** (x2)
-----------------------------------------------------------------------------|
-----------------------------------------------------------------------------|
---9-7---7-9----9-7----------------------------------------------------------|
---9-7---7-9----9-7----------------------------------------------------------|
-7-----------77--------------------------------------------------------------|
-----------------------------------------------------------------------------|


**Verse**
1
sawaideru seikachuu
1
uraideru shouhishakai
                      **Riff 2**
------------------------------------------------------------------------------|
----9-7---7-9----9-7----------------------------------------------------------|
----9-7---7-9----9-7----------------------------------------------------------|
--7-----------77--------------------------------------------------------------|
------------------------------------------------------------------------------|
------------------------------------------------------------------------------|
ume idaku BOYS&GIRLS
1
hane hiraku basho sagasu
                      **Riff 3**
-----------------------------------------------------------------------------|
---11-9---9-11-----9-7-------------------------------------------------------|
---11-9---9-11-----9-7-------------------------------------------------------|
-9-------------9-7-----------------------------------------------------------|
-----------------------------------------------------------------------------|
-----------------------------------------------------------------------------|
yukou mou matenaisa
1
mattanashi

1

-7--7--7--7-----------|------------------------------------------------------|
-8--8--8--8-----------|------------------------------------------------------|
-9--9--9--9-----------|------------------------------------------------------|
-9--9--9--9--99999999-|------------------------------------------------------|
-7--7--7--7--77777777-|------------------------------------------------------|
-7--7--7--7-----------|------------------------------------------------------|
   **Em Riff**
doumo RUUTIN mainichi
PASOKON nirande
kata koru koru koru koru

                    **Riff 4**
-----------------------------------------------------------------------------|
---------------9-7--7-9-----9-7----------------------------------------------|
---9-7---------9-7--7-9-----9-7----------------------------------------------|
---9-7-------7----------9-7--------------------------------------------------|
-7-----5-6-7-----------------------------------------------------------------|
-----------------------------------------------------------------------------|
yume mo kibou mo aruno yo
SUTEKIna renai SUTEKIna
1
JUUNBURAIDO

3
yukou mou matenaisa
                   **Riff  5**
------------------------------------------------------------------------------|
------------------------------------------------------------------------------|
---9--7--7-9------------------------------------------------------------------|
---9--7--7-9---7--------------------------------------------------------------|
-7-----------------------5-6-7------------------------------------------------|
-------------5---5-6-7-8------------------------------------------------------|
yuuki wo motte tachiagare

                 **Bridge Riff**
-----------------------------------------------------------------------------|
-----------------------------------------------------------------------------|
-----------------------------------------------------------------------------|
-----------------------------------------------------------------------------|
---------------------7-------------------------------------------------------|
-7-7-9--7-10-7---7-7---10-9-7--x2--------------------------------------------|
AH

**Chorus**
A
Count Down
      E
3, 2, 1, Breakin' Out
B
CHANSU ga matteru
E
OH YEAH OH YEAH
A            E
Kitai sareru to moeru
   B
OH YEAH YEAH YEAH

1
hiitorikiri sugasu shuumatsu
1
kazoku minna kakomu shuumatsu
2
kaerarenu kako no jujitsu
1
yoki dekinu kuru mirai

3
yukou mo matenaisa
5
yuuki wo motte tachiagare

1 x2

1
oomori wo taberu hito
1
8 BIITO kizamu hito
2
hito wa hito mina onaji
1
yume wa yume kagiri nashi

3
yukou mou matenaisa
5
Cmon Baby

Em riff
saredo DEPA chika SUIITSU
oshiai heshiai
oonigiwai YAI YAI

4
fukeiki towa betsubara
1
tegowai kurai ni amai mono hairuyo

3
yukou mo matenaisa
5
yuuki wo motte tachiagare

bridge riff
Ah

A
Count Down
      E
3, 2, 1, Break'in out
B
minna tsurarechau
E
OH YEAH OH YEAH
A              E
hakushukasshai shite yo ne
B
OH YEAH YEAH YEAH

1
nayande mo ichijikan
1
tanoshinde mo ichijikan
2
te wo buriage migihidari
1
minnasou migihidari

3
yukou mou matenasaisa
5
yuuki wo motte tachiagare

**SOLO**
----------------------------------------|------------------------|-----------|
----------------------------------------|------------12p11p9h12--|-----------|
-9-9-11-9-13-9-11-9---9-11-9-13-9-11-9--|-9v--11v----------------|-----------|
----------------------------------------|------------------------|-----------|
----------------------------------------|------------------------|-----------|
----------------------------------------|------------------------|-----------|
x7

Bridge riff
AH

A
Count Down
      E
3, 2, 1 Breakin' Out
B
CHANSU ga matteru
E
OH YEAH OH YEAH
A            E
kitai sareru to moeru
B
OH YEAH YEAH x4

A
Count Down
      E
3, 2, 1 Breakin' Out
B
minna tsurairechau
E
OH YEAH OH YEAH
A                    E
hakushukasshai shite yo ne
B
OH YEAH YEAH YEAH

1
nadeshiko wo sagasu hito
1
samurai wo sagasu hito
2
ongaku de odoru hito
1
kimochi yoku utau hito

3
yukou mou matenasaisa
5
yuuki wo motte tachiagare

1 x4
Добавлено: 02.05.2016
Другие материалы по этой песне:
  • Аккорды и текст

Страница создана 02.05.2016
http://primanota.ru/morning-musume-otomegumi/321-breakin-out-chords.htm
Привет, Гость.
Предлагаем пройти революционный курс по гитаре.
Подарок от PrimaNota.Ru, забирай!