PrimaNota.ru - самый крупный в мире бесплатный архив песенных текстов, аккордов, табулатур и нот


Morning Glory - Not Another Christmas - таба, видео

Регистрация Запомнить меня
Войти через:  Facebook Google Twitter Vk Yandex Mail.ru

Morning Glory - Not Another Christmas - таба, видео

Печатать
Просмотров: 59
Artist: Morning Glory
Song: Not Another Christmas


Intro: (Clean)
e-------------------------------------------------------------------|
B-------------------------------------------------------------------|
G-5---5---5---5----2---2---4----4-----------------------------------|
D---5---5---4---4----3---3----5---5---------------------------------|
A-------------------------------------------------------------------|
E-------------------------------------------------------------------|
Intro Part 2/Chorus: (Distorted)
e-------------------------------------------------------------------|
B-------------------------------------------------------------------|
G-----5-----5-----5-----5-----2-----2-----4-----4-------------------|
D-5-5---5-5---4-4---4-4---3-3---3-3---5-5---5-5---------------------|
A-------------------------------------------------------------------|
E-------------------------------------------------------------------|
Palm mute notes on "D" String

End of Intro/Chorus:
e--------------------------------------------------------------------|
B--------------------------------------------------------------------|
G-----5-----5-----7-----7-------9-------9-------10-------------------|
D-7-7---7-7---9-9---9-9---10-10---10-10---12-12----------------------|
A--------------------------------------------------------------------|
E--------------------------------------------------------------------|


e-----------------------------------------------------------------------|
B-----------------------------------------------------------------------|
G-12-12-10-10-9-9-7-7------5-5-7-7-9-9----------------------------------|
D-x--x---x--x-x-x-x-x-(x3)-x-x-x-x-x-x----------------------------------|
A-10-10--8--8-7-7-5-5------3-3-5-5-7-7----------------------------------|
E-----------------------------------------------------------------------|

Verse:
e-----------------------------------------------------------------------|
B-----------------------------------------------------------------------|
G-----------------------------------------------------------------------|
D--5--------------------------------------------------------------------|
A--3-7-5-3--------------------------------------------------------------|
E----5-3-1--------------------------------------------------------------|

Outro:
e----------------------------------------------------------------------|
B----------------------------------------------------------------------|
G----------------------------------------------------------------------|
D-----7-----7-----5-----5----------------------------------------------|
A-----------------------------7-----7-----5-----5----------------------|
E-5-5---5-5---5-5---5-5----5-5---5-5---5-5--5-5------------------------|


e---------------------------------------------------------------------|
B---------------------------------------------------------------------|
G---------------------------------------------------------------------|
D-----7-----7-----9----9------10-----10-------12-------12-------------|
A---------------------------------------------------------------------|
E-5-5---5-5---7-7---7-7---8-8----8-8----10-10----10-10----------------|
Palm mute all notes on "E" string

e-------------------------------------------------------------------------|
B-------------------------------------------------------------------------|
G-7-7-7-7-7-9-9-9-9-9-11-11-11-11-11-14-14-14-14-14-----------------------|
D-x-x-x-x-x-x-x-x-x-x-x--x--x--x--x---x--x--x--x--x-----------------------|
A-5-5-5-5-5-7-7-7-7-7-9--9--9--9--9--12-12-12-12-12-----------------------|
E-------------------------------------------------------------------------|
Добавлено: 14.06.2013
Вам также может быть интересно:
Другие материалы по этой песне:
  • Аккорды и текст

Страница создана 14.06.2013
http://primanota.ru/morning-glory/not-another-christmas-chords.htm
Привет, Гость.
Предлагаем пройти революционный курс по гитаре.
Подарок от PrimaNota.Ru, забирай!