PrimaNota.ru - самый крупный в мире бесплатный архив песенных текстов, аккордов, табулатур и нот


Morning Glory - Gimme Heroin - текст песни, таба, видео

Регистрация Запомнить меня
Войти через:  Facebook Google Twitter Vk Yandex Mail.ru

Morning Glory - Gimme Heroin - текст песни, таба, видео

Печатать
Просмотров: 123
Уроки эстрадного вокала в Санкт-Петербурге
Just learn the parts, they're labeled by section and letter. Then just
play the parts in the order listed. If a part is the same in another
section, it has the same letter as before. Should be simple to follow.

Intro:
A-B-A-B

A)                       B)
 E|--5-5--5-5--8-8--7-7|   E|--5-5--5-5--------|
 B|--6-6--5-5--9-9--7-7|   B|--6-6--5-5--------|
 G|--6-6--6-6--9-9--8-8|   G|--6-6--6-6--9-11-8|
 D|--6-6--7-7--9-9--9-9|   D|--6-6--7-7--9-11-8|
 A|--4-4--7-7--7-7--9-9|   A|--4-4--7-7--7-9--6|
 E|-------5-5-------7-7|   E|-------5-5--------|
------------------------------------------------

Verse:
A-B-A-B-A-B-A-C

A)                       B)
 E|--5-5--5-5--8-8--7-7|   E|--5-5--5-5--------|
 B|--6-6--5-5--9-9--7-7|   B|--6-6--5-5--------|
 G|--6-6--6-6--9-9--8-8|   G|--6-6--6-6--9-11-8|
 D|--6-6--7-7--9-9--9-9|   D|--6-6--7-7--9-11-8|
 A|--4-4--7-7--7-7--9-9|   A|--4-4--7-7--7-9--6|
 E|-------5-5-------7-7|   E|-------5-5--------|

C)
 E|--5----5----88----777|
 B|--6----5----98----777|
 G|--6----6----99----888|
 D|--6----7----99----999|
 A|--4----7----77----999|
 E|-------5----------777|
-------------------------------------------------

Chorus:
D-D-D-E

D)                        E)
 E|--8-8--5-5--8-8--7-7-|   E|--8-8--5-5--------|
 B|--9-9--5-5--9-9--7-7-|   B|--9-9--5-5--------|
 G|--9-9--6-6--9-9--8-8-|   G|--9-9--6-6--9-11-8|
 D|--9-9--7-7--9-9--9-9-|   D|--9-9--7-7--9-11-8|
 A|--7-7--7-7--7-7--9-9-|   A|--7-7--7-7--7-9--6|
 E|-------5-5-------7-7-|   E|-------5-5--------|
-------------------------------------------------

Interlude:
C-F-F-F-G

C)                       F)
E|--5----5----88----777|   E|-------------------|
B|--6----5----98----777|   B|-------------------|
G|--6----6----99----888|   G|-------------------|
D|--6----7----99----999|   D|7-7--6-6--4-4--2-2-|
A|--4----7----77----999|   A|7-7--6-6--4-4--2-2-|
E|-------5----------777|   E|5-5--4-4--2-2--0-0-|

G)
E|-----------------------|
B|-----------------------|
G|---------------999-999-|
D|7-7--6-6--4-4--999-999-|
A|7-7--6-6--4-4--777-777-|
E|5-5--4-4--2-2----------| 
-------------------------------------------------

Solo:
S-S

S)
E|------------------------------------------------|
B|------------------------------------------------|
G|---/6--9-6-9-66------9-8---/6--9-6-9-11-13-14-11|
D|----------------6-XX----------------------------|
A|------------------------------------------------|
E|------------------------------------------------|

     Intro     X1
     Verse     X1
     Chorus    X1
     Verse     X1
     Chorus    X1
     Interlude X1
     Chorus    X2

DFFBoston had a good start with this, but it wasn't quite accurate 
enough. The solo for this tab should be pretty much spot on, though 
perhaps I added a bit more detail to the rest of the parts than I 
should have. Either way, it's an easy to follow tab. 

Questions/Comments/Corrections
dustingrey@gmail.com




Добавлено: 15.03.2012
Другие материалы по этой песне:
  • Аккорды и текст

Страница создана 15.03.2012
http://primanota.ru/morning-glory/gimme-heroin-chords.htm
Привет, Гость.
Предлагаем пройти революционный курс по гитаре.
Подарок от PrimaNota.Ru, забирай!