PrimaNota.ru - самый крупный в мире бесплатный архив песенных текстов, аккордов, табулатур и нот


moriaty - Bones - бас-таба, видео

Регистрация Запомнить меня
Войти через:  Facebook Google Twitter Vk Yandex Mail.ru

moriaty - Bones - бас-таба, видео

Печатать
Просмотров: 95
-------------------------------------------------------------------------------
                             Bones - Moriaty
-------------------------------------------------------------------------------
Tabbed by: EmmaMUSE
Bassist: Chris Wolstenbaby from MUSE'(in the video)(I think they don't have an official bass player)
E-mail: emmanuelvenegas@hotmail.com

Tuning: DADG (Drop D)
h-hammer on
/-slide up

*I tabbed the main riff at the high D string because that's how Chris plays it at the video, 
but if you want you can play it at the low one, however sounds better to you. :)

INTRO
G|--------------------|---------------------|---------------------|
D|--------------------|--0h5h67-7-7-7-7-7-7-|-0h5h67-7-7-7-7-7-7--|
A|-0h3--0h3--5h7--5h7-|---------------------|---------------------|
D|--------------------|---------------------|---------------------|

VERSE 
G|--------------------|------------------|
D|-0h5h67-7-7-7-7-7-7-|-7-7-7-7----------|
A|--------------------|---------0h3--0h3-|   (x4)  REPEAT FOUR TIMES
D|--------------------|------------------|

CHORUS
G|-----------------|------------------|-----------------|------------------|
D|-----------------|------------------|-----------------|------------------|   (x2) REPEAT TWO TIMES
A|-----------------|---------0h3--0h3-|-----------------|---------0h3--0h3-|
D|-7-7-7-7-3-3-3-3-|-5-5-5-5----------|-3-3-3-3-2-2-2-2-|-0-0-0-0----------|

BRIDGE 1
G|--------------------|--------------------|
D|-0h5h67-7-7-7-7-7-7-|-0h5h67-7-7-7-7-7-7-|
A|--------------------|--------------------|
D|--------------------|--------------------|

VERSE 
G|--------------------|------------------|
D|-0h5h67-7-7-7-7-7-7-|-7-7-7-7----------|
A|--------------------|---------0h3--0h3-|   (x4)  REPEAT FOUR TIMES
D|--------------------|------------------|

CHORUS
G|-----------------|------------------|-----------------|------------------|
D|-----------------|------------------|-----------------|------------------|   (x2) REPEAT TWO TIMES
A|-----------------|---------0h3--0h3-|-----------------|---------0h3--0h3-|
D|-7-7-7-7-3-3-3-3-|-5-5-5-5----------|-3-3-3-3-2-2-2-2-|-0-0-0-0----------|

BRIDGE 2
G|-------------------|-------------------|-------------------|-------------------|
D|-------------------|-------------------|-------------------|-------------------|
A|-12/---------------|----------0h3--0h3-|-12/---------------|-------------------|
D|-------------------|-------------------|-------------------|-------------------|

G|-------------------------------------|----------------------------------------|
D|-5h7--7--0h5h7--7-0h5h7--7-----------|-0h5h7--7-0h5h7--7--0h5h7--7------------|
A|----------------------------0h3--0h3-|------------------------------0h3--0h3--|
D|-------------------------------------|----------------------------------------|

G|---------------------------------------|----------------------------------------|
D|-0h5h7--7--0h5h7--7-0h5h7--7-----------|-0h5h7--7-0h5h7--7--0h5h7--7--7777777/--|
A|------------------------------0h3--0h3-|----------------------------------------|
D|---------------------------------------|----------------------------------------|

CHORUS
G|-----------------|------------------|-----------------|------------------|
D|-----------------|------------------|-----------------|------------------|   (x2) REPEAT TWO TIMES
A|-----------------|---------0h3--0h3-|-----------------|---------0h3--0h3-|
D|-7-7-7-7-3-3-3-3-|-5-5-5-5----------|-3-3-3-3-2-2-2-2-|-0-0-0-0----------|

OUTRO
G|--------------------|
D|-----------5h7/-----|
A|-5h7--5h7-----------|
D|--------------------|

| /  slide up
| \  slide down
| h  hammer-on
| p  pull-off
| ~  vibrato
| +  harmonic
| x  Mute note

If you find a mistake or you got a suggestion please tell me at the comments
===============================================================================
Добавлено: 14.05.2016
Другие материалы по этой песне:
  • Аккорды и текст

Страница создана 14.05.2016
http://primanota.ru/moriaty/bones-chords.htm
Привет, Гость.
Предлагаем пройти революционный курс по гитаре.
Подарок от PrimaNota.Ru, забирай!