PrimaNota.ru - самый крупный в мире бесплатный архив песенных текстов, аккордов, табулатур и нот


Morgoth - Travel - текст песни, таба, видео

Регистрация Запомнить меня
Войти через:  Facebook Google Twitter Vk Yandex Mail.ru

Morgoth - Travel - текст песни, таба, видео

Печатать
Просмотров: 83
Artist: Morgoth
Song: The Travel
Album: Resurrection Absurd
Tabbed by: chris

Tuning: D standard

Intro
|--------------------------------------------------------|
|--------------------------------------------------------|
|--------------------------------------------------------|
|--------------------------------------------------------|
|----------------------------------3333-----------2222---|
|00000-333333-222222-555555-111111------11-000000------11|

|-----------------------------------------------------------------------------------------------|
|-----------------------------------------------------------------------------------------------|
|-----------------------------------------------------------------------------------------------|
|---------------------------------------------------------------------777777777777-887755-------|
|----------------666666-------------------4-5-4------------------6666-555555555555--------887755|
|4444447444464444------333333333333333333-2-3-2-4444447444464444--------------------------------|

Gtr. 1
|--------------------------------|--------------------------------|
|--------------------------------|--------------------------------|
|--------------------------------|--------------------------------|
|--------------------------------|------5544------------5544------|
|------5544------------5544------|005566----556655005566----556655|
|005566----556655005566----556655|--------------------------------|
Gtr. 2
|-------------------------------|
|-------------------------------|
|-------------------------------|
|-------------------------------|
|2-----------------2---2---2---2|
|0-----------------0---0---0---0|

|----------------------------------|
|----------------------------------|
|----------------------------------|
|------------------------------8877|
|-------------------------5555-----|
|446474643333333344647464----------|

|---------------------------------------------------------------------------------------------|
|---------------------------------------------------------------------------------------------|
|---------------------------------------------------------------------------------------------|
|---------------------------------------------------------------------------------------------|
|---------------------------------------------------------------------------------------------|
|1111111111-00-888888-111111-0000000000-333333-222222-1111111111-00-888888-111111-000000000000|

|---------------------------------------------------------------------------------------------------------|
|---------------------------------------------------------------------------------------------------------|
|---------------------------------------------------------------------------------------------------------|
|-------111111-2222222222-00-111111---------------------777777--------------------------------------------|
|222222-----------------------------111111-222222222222--------666666-555555-00-333333--------------------|
|--------------------------------------------------------------------------------------111111-000000000000|

|---------------------------------------------------|
|---------------------------------------------------|
|---------------------------------------------------|
|---------------------------------------------------|
|---------------------------------------------------|
|000000000000-333333333333-111111111111-444444444444|

Solo
|-------------------------------------------------12|
|---------------------------------------------------|
|-------------------------9-10-9-7-----------9-10---|
|-------7-9-----------7-9----------10-9-7-12--------|
|7-9-10-----10-7-9-10-------------------------------|
|---------------------------------------------------|

|12-12-14-12-15-12-17-12-15-12-14-12|
|-----------------------------------|
|-----------------------------------|
|-----------------------------------| x3
|-----------------------------------|
|-----------------------------------|

|----------12-----------------------------------------------------------------------------------------12|
|12--14-15----------------------------------------------------------------------------------------------|
|--------------10-9-7---------------------------------------------------------9-10-9-7-----------9-10---|
|---------------------10-9-7--------7-----------------------7-9-----------7-9----------10-9-7-12--------|
|----------------------------7-9-10---10-9-7---------7-9-10-----10-7-9-10-------------------------------|
|--------------------------------------------10-9-7-----------------------------------------------------|

Gtr. 1
|-------------------------------------------------|
|-------------------------------------------------|
|-------------------------------------------------|
|0-----2-1---0-----2-1---0-----2-1---0-----2-1---0|
|--2-3-----2---2-3-----2---2-3-----2---2-3-----2--|
|-------------------------------------------------|
Gtr.2
|--------------------------------------------------|
|--------------------------------------------------|
|--------------------------------------------------|
|7-----------------------7-------------------------|
|5-----------------------5-------------------------|
|--------------------------------------------------|

|-----------------------------------------------|
|-----------------------------------------------|
|-----------------------------------------------|
|-----------------------------------------------|
|----------2-----------2-----------2-----------2|
|0-2-0-2-3---0-2-0-2-3---0-2-0-2-3---0-2-0-2-3--|

|--------------------------------------------------------------|
|--------------------------------------------------------------|
|--------------------------------------------------------------|
|--------------------------------------------------------------|
|-------------------------------------------------------------2|
|007788770077887700000000000000000077887700778877113344113344-0|



************************************

| /   slide up
| \   slide down
| h   hammer-on
| p   pull-off
| ~   vibrato
| +   harmonic
| x   Mute note
| b   Bend
| pb  Pre-bend
| br  Bend release
| pbr Pre-bend release
| brb Bend release bend

************************************
Добавлено: 09.12.2015
Вам также может быть интересно:
Другие материалы по этой песне:
  • Аккорды и текст

Страница создана 15.07.2012
http://primanota.ru/morgoth/travel-chords.htm
Привет, Гость.
Предлагаем пройти революционный курс по гитаре.
Подарок от PrimaNota.Ru, забирай!