PrimaNota.ru - самый крупный в мире бесплатный архив песенных текстов, аккордов, табулатур и нот


Morgoth - Pits Of Utumno - текст песни, таба, видео

Регистрация Запомнить меня
Войти через:  Facebook Google Twitter Vk Yandex Mail.ru

Morgoth - Pits Of Utumno - текст песни, таба, видео

Печатать
Просмотров: 165
Уроки эстрадного вокала в Санкт-Петербурге
Artist: Morgoth 
Song: Pits Of Utumno
Album: The Eternal Fall
Tabbed by:chris

Tuning:D standard 

Gtr. 1
|-------------------------------------------------------------------------|-----|
|-------------------------------------------------------------------------|-----|
|-------------------------------------------------------------------------|-----|
|-------------------------------------------------------------------------|-(2)-|
|----2-222-222-222222-3-333-333-3-2----2-222-222-222222-3-333-333-3-2-----|-----|
|12/-0-000-000-000000-1-111-111-----3--0-000-000-000000-1-111-111-----3---|-----|
Gtr. 2
|-------------------------------------------------------------------------|
|-------------------------------------------------------------------------|
|-------------------------------------------------------------------------|
|-------------------------------------------------------------------------|
|--------------------------------------2----------------3---------3-2-----|
|--------------------------------------0----------------1-------------3---|


Gtr. 1
|---------------------------------------------------------------------|
|---------------------------------------------------------------------|
|---------------------------------------------------------------------|
|---------------------------------9-0-10-0-9-0-10-0-9-0-10-0-9-0-10-0-|
|7-0-8-0-7-0-8-0-7-0-8-0-7-0-8-0--------------------------------------|
|---------------------------------------------------------------------|
Gtr. 1
|------------------------------------------------------------------12-|
|------------------------------------12-0-13-0-12-0-13-0-12-0-13-0----|
|9-0-10-0-9-0-10-0-9-0-10-0-9-0-10-0----------------------------------|
|---------------------------------------------------------------------|
|---------------------------------------------------------------------|
|---------------------------------------------------------------------|
Gtr. 2
|---------------------------------------------------------------------|
|---------------------------------------------------------------------|
|---------------------------------------------------------------------|
|---------------------------------------------------------------------|
|2-222-222-222222-3-333-333-3-2----2-222-222-222222-3-333-333-3-2-----|
|0-000-000-000000-1-111-111-----3--0-000-000-000000-1-111-111-----3---|


Gtr. 1 & 2
|------------------------------------------------------|
|------------------------------------------------------|
|------------------------------------------------------|
|------------------------------------------------------| x2
|---------------------------666666-777777--------------|
|777777-888888-000000000000---------------000000000000-|


Gtr. 1 & 2
|---------------------------------|---------------------------------|-------------|
|---------------------------------|---------------------------------|-------------|
|---------------------------------|---------------------------------|-------------|
|---------------------------------|---------------------------------|-------------|
|--------------5555-4444-0000-4444|5555-4444-0000-4444--------------|-------------|
|333333-222222--------------------|--------------------333333-222222|333333-222222|
                x5                                 x2     

Gtr. 1 
|---------------------------------------------------|
|---------------------------------------------------|
|---------------------------------------------------|
|---------------------------------------------------| x2
|3-2----------5-3----------3-2----------5-3---------|
|1-0--000000--3-1--111111--1-0--000000--3-1-111111--|
Gtr. 2
|---------------------------------------------------|
|---------------------------------------------------|
|---------------------------------------------------|
|10-9--------12-10---------10-9---------12-10-------| x2
|8--7--------10--8---------8--7---------10--8-------|
|---------------------------------------------------|


Gtr. 1
|-------------------------------------------------------------------------------------|
|-------------------------------------------------------------------------------------|
|-------------------------------------------------------------------------------------|
|-------------------------------------------------------------------------------------|
|-------------------------------------------------------------------------------------|
|3-2--5-3-6--5-3-2--5-3-2--5-3-2---------5---------3---------2--2--3-5-3-2--5-3-2--5-3|
|1-0--3-1-4--3-1-0--3-1-0--3-1-0--444444-3--222222-1--111111-0--0--1-3-1-0--3-1-0--3-1|
Gtr. 2
|-------------------------------------------------------------------------------------|
|-------------------------------------------------------------------------------------|
|5-4--7-5-8--7-5-4--7-5-4--7-5-4---------7---------5---------4--4--5-7-5-4--7-5-4--7-5|
|3-2--5-3-6--5-3-2--5-3-2--5-3-2--666666-5--444444-3--333333-2--2--3-5-3-2--5-3-2--5-3|
|-------------------------------------------------------------------------------------|
|-------------------------------------------------------------------------------------|


Gtr. 1 & 2
|----------------------|----------------------------------|
|----------------------|----------------------------------|
|----------------------|----------------------------------|
|---------------3-2----|---------3-2--------------3-2-----|
|2----2----2--------3-2|-------------3-2--------------3-2-|
|0-00-0-00-0-00--------|00000000---------00000000---------|
           x3


Gtr. 1 & 2
|-------------------------------------------------------------------------------------------------|
|-------------------------------------------------------------------------------------------------|
|-------------------------------------------------------------------------------------------------|
|-------------------------------------------------------------------------------------------------| x2
|2----2----2----5-4-2----2----2----5-4-2----2----2----5-4-5----5----5----8-7-5----5----5----5-4-2-|
|0-00-0-00-0-00-3-2-0-00-0-00-0-00-3-2-0-00-0-00-0-00-3-2-3-33-3-33-3-33-6-5-3-33-3-33-3-33-3-2-0-|


Gtr. 1
|-----------------|-------------------|-------------------|-------------------|-------|
|-----------------|-------------------|-------------------|-------------------|-------|
|-t12-9p0-t12-9p0-|-t12-10p0-t12-10p0-|-t12-11p0-t12-11p0-|-t12-10p0-t12-10p0-|-t12-9-|
|-----------------|-------------------|-------------------|-------------------|-------|
|-----------------|-------------------|-------------------|-------------------|-------|
|-----------------|-------------------|-------------------|-------------------|-------|
         x4                x4                  x4                  x4  
Gtr. 2
|------------------|-----------------|------------------|------------------|    |---|
|------------------|-----------------|------------------|------------------|    |---|
|------------------|-----------------|------------------|------------------|    |---|
|------------------|-----------------|------------------|------------------| x2 |---|
|------------------|-----------------|------------------|------------------|    |-2-|
|-0000000000000000-|-1111111111111111|-2222222222222222-|-1111111111111111-|    |-0-|


Gtr. 1 
|-----------|
|-----------|
|-----------|
|-----------|
|0-2-3-6-5-3|
|-----------|


Gtr. 1 & 2
|---------------------------------------------------|    |---|
|---------------------------------------------------|    |---|
|---------------------------------------------------|    |---|
|---------------------------------------------------| x4 |---|
|---------------------------------------------------|    |-7-|
|555555555555-111111111111-000000000000-444444444444|    |-5-|


Gtr. 1 & 2
|----------------------------|
|----------------------------|
|----------------------------|
|----------------------------|
|7--3--2--6--7--3--2--6--7--7|
|5--1--0--4--5--1--0--4--5--5|



************************************

| /   slide up
| \   slide down
| h   hammer-on
| p   pull-off
| ~   vibrato
| +   harmonic
| x   Mute note
| b   Bend
| pb  Pre-bend
| br  Bend release
| pbr Pre-bend release
| brb Bend release bend

************************************
Добавлено: 09.12.2015
Другие материалы по этой песне:
  • Аккорды и текст

Страница создана 30.07.2012
http://primanota.ru/morgoth/pits-of-utumno-chords.htm
Привет, Гость.
Предлагаем пройти революционный курс по гитаре.
Подарок от PrimaNota.Ru, забирай!