PrimaNota.ru - самый крупный в мире бесплатный архив песенных текстов, аккордов, табулатур и нот


Morgoth - From Dusk To Dawn - таба, видео

Регистрация Запомнить меня
Войти через:  Facebook Google Twitter Vk Yandex Mail.ru

Morgoth - From Dusk To Dawn - таба, видео

Печатать
Просмотров: 66
Artist: Morgoth
Song From Dusk To Dawn
Album: Pits Of Utumno
Year: 1988
Tabbed by: antichris666

Tuning: E standard
 
 Intro
e|-13-12----13-12----13-12----13-12----|-11-10---11-10---11-10---11-10---|
B|-------10-------10-------10-------10-|-------8-------8-------8-------8-|
G|-------------------------------------|---------------------------------|
D|-------------------------------------|---------------------------------|
A|-------------------------------------|---------------------------------|
E|-------------------------------------|---------------------------------|

e|-9-8---9-8---9-8---9-8---|-8-7---8-7---8-7---8-7---|
B|-----6-----6-----6-----6-|-----5-----5-----5-----5-|
G|-------------------------|-------------------------|
D|-------------------------|-------------------------|
A|-------------------------|-------------------------|
E|-------------------------|-------------------------|


 Gtr I 
e|-13-12----13-12----13-12----13-12----|-11-10---11-10---11-10---11-10---|
B|-------10-------10-------10-------10-|-------8-------8-------8-------8-|
G|-------------------------------------|---------------------------------|
D|-------------------------------------|---------------------------------|
A|-------------------------------------|---------------------------------|
E|-------------------------------------|---------------------------------|
 
 Gtr II
e|-------------------------------------|---------------------------------|
B|-------------------------------------|---------------------------------|
G|-------------------------------------|---------------------------------|
D|-7-----------------------------------|-5-------------------------------|
A|-5-----------------------------------|-3-------------------------------|
E|-------------------------------------|---------------------------------|


 Gtr I
e|-9-8---9-8---9-8---9-8---|-8-7---8-7---8-7---8-7---|
B|-----6-----6-----6-----6-|-----5-----5-----5-----5-|
G|-------------------------|-------------------------|
D|-------------------------|-------------------------|
A|-------------------------|-------------------------|
E|-------------------------|-------------------------|
 Gtr II
e|-------------------------|-------------------------|
B|-------------------------|-------------------------|
G|-------------------------|-------------------------|
D|-3-----------------------|-2-----------------------|
A|-1-----------------------|-0-----------------------|
E|-------------------------|-------------------------|
 

 Gtr I
e|-------------------------------|-------------------------|
B|-------------------------------|-------------------------|
G|-------------------------------|-------------------------|
D|-8-7---8-7---8-7---8-7---8-7---|-6-5---6-5---6-5---6-5---|
A|-----5-----5-----5-----5-----5-|-----3-----3-----3-----3-|
E|-------------------------------|-------------------------|
 
 Gtr II
e|-------------------------------|-------------------------|
B|-------------------------------|-------------------------|
G|-------------------------------|-------------------------|
D|-7-----------------------------|-5-----------------------|
A|-5-----------------------------|-3-----------------------|
E|-------------------------------|-------------------------|


 Gtr I
e|-------------------------|-------------------------|
B|-------------------------|-------------------------|
G|-------------------------|-------------------------|
D|-4-3---4-3---4-3---4-3---|-3-2---3-2---3-2---3-2---|
A|-----1-----1-----1-----1-|-----0-----0-----0-----0-|
E|-------------------------|-------------------------|
 Gtr II
e|-------------------------|-------------------------|
B|-------------------------|-------------------------|
G|-------------------------|-------------------------|
D|-3-----------------------|-2-----------------------|
A|-1-----------------------|-0-----------------------|
E|-------------------------|-------------------------|


e|----------|
B|----------|
G|----------|
D|-2--------| 
A|-0------6-|
E|--------4-|
 
  
 Riff A (Repeat 4 times)
e|---------------------------------------------------------------------------------|
B|---------------------------------------------------------------------------------|
G|---------------------------------------------------------------------------------|
D|---------------------------------------------------------------------------------| 
A|---------------------------------------------------------------------------------|
E|-5-5-5-5-4-4-4-4-5-5-5-5-4-4-4-4-7-7-7-7-8-8-8-8-5-5-5-5-7-7-7-7-5-5-5-5-4-4-4-4-|
   . . . . . . . . . . . . . . . . . . . . . . . . . . . . . . . . . . . . . . . . 


e|----------|
B|----------|
G|----------|
D|----------|
A|-7------3-|
E|-5------1-|

        
 Riff B (Repeat 2 times)
e|----------------------------------------------------------------------------------------|
B|----------------------------------------------------------------------------------------|
G|----------------------------------------------------------------------------------------|
D|----------------------------------------------------------------------------------------|
A|-2--2--2-----3---------2--2--2-----3---------2--2--2-----3---------2--2--2-----3--------|
E|-0--0--0--0--1--0-0-0--0--0--0--0--1--0-0-0--0--0--0--0--1--0-0-0--0--0--0--0--1--0-0-0-|
            .     . . .           .     . . .           .     . . .  .  .  .  .     . . .


 Riff C
e|---------------------|
B|---------------------|
G|---------------------|
D|---------------------|
A|-2--2--2-----3--3--2-|
E|-0--0--0--0--1--1--0-|
            .      


e|-------------------------|
B|-------------------------|
G|-------------------------|
D|-------------------------|
A|-------------------------|
E|-0-0-0-0-0-0-0-0-0-0-0-0-|
   . . . . . . . . . . . .


 Riff D (Repeat 2 times)
e|-----------------------------------------------------|
B|-----------------------------------------------------|
G|-----------------------------------------------------|
D|-----------------------------------------------------|
A|---------------------------------2-2-2-2-1-1-1-1-1-1-|
E|-3-3-3-3-0-0-3-3-3-3-0-0-3-3-3-3---------------------|
   . . . . . . . . . . . . . . . . . . . . . . . . . . 

e|-----------------------------------------------------|
B|-----------------------------------------------------|
G|-----------------------------------------------------|
D|-----------------------------------------------------|
A|-----------------------------------------------------|
E|-3-3-3-3-0-0-3-3-3-3-0-0-3-3-3-3-2-2-2-2-1-1-1-1-1-1-|
   . . . . . . . . . . . . . . . . . . . . . . . . . .
 

 Riff E (Repeat 6 times)
e|-------------------------------------------------|
B|-------------------------------------------------|
G|-------------------------------------------------|
D|-------------------------------------------------|
A|-------------------------------------------------|
E|-0-0-0-0-0-0-2-2-2-2-2-2-3-3-3-3-3-3-2-2-2-2-2-2-|
   . . . . . . . . . . . . . . . . . . . . . . . .


 Riff F (Repeat 6 times)
e|-------------------------------------------------|
B|-------------------------------------------------|
G|-------------------------------------------------|
D|-------------------------------------------------| 
A|-------------------------------------------------|
E|-0-0-0-0-0-0-2-2-2-2-2-2-5-5-5-5-5-5-3-3-3-3-3-3-|
   . . . . . . . . . . . . . . . . . . . . . . . . 


 Riff G
e|-----------------------------------------------------|
B|-----------------------------------------------------|
G|-----------------------------------------------------|
D|-----------------------------------------------------|
A|---------------------------------2-2-2-2-1-1-1-1-1-1-|
E|-3-3-3-3-0-0-3-3-3-3-0-0-3-3-3-3---------------------|
   . . . . . . . . . . . . . . . . . . . . . . . . . . 

e|-----------------------|
B|-----------------------|
G|-----------------------|
D|-----------------------|
A|--------------5--4--3--|
E|-3-3-3-3-0-0--3--2--1--|
   . . . . . . 
 

 Gtr I
e|-------------------------------------------------------|
B|-5---6---8---5---5p4h5---6---8---5---5p4h5---6---------|
G|-------------------------------------------------3---2-|
D|-------------------------------------------------------|
A|-------------------------------------------------------|
E|-------------------------------------------------------|

 Gtr II
e|-------------------------------------------------------|
B|-------------------------------------------------------|
G|-------------------------------------------------------|
D|-------------------------------------------------------|
A|-2---3---5---2-------2---3---5---2-------2---3---8---7-|
E|-0---1---3---0-------0---1---3---0-------0---1---6---5-|


 Gtr I
e|-----------------------------------------------------------|
B|-----------------------------------------------------------|
G|-----------------------------------------------------------|
D|-9-----------------------10-------------12--10--13--10--12-|
A|-7-----------------------8--------------10--8---11--8---10-|
E|-----------------------------------------------------------|
 Gtr II
e|-----------------------------------------------------------|
B|-----------------------------------------------------------|
G|-----------------------------------------------------------|
D|-----------------------------------------------------------|
A|-2-2-2-2-2-2-2-2-2-2-2-2-3-3-3-3-3-3-3--5---5---6---3---5--|
E|-0-0-0-0-0-0-0-0-0-0-0-0-1-1-1-1-1-1-1--3---1---4---1---3--|
   . . . . . . . . . . . . . . . . . . . 


 Gtr I
e|--------------------------------------------|
B|--------------------------------------------|
G|--------------------------------------------|
D|-9----------10----------12--10--13--10--12--|
A|-7----------8-----------10--8---11--8---10--|
E|--------------------------------------------|

 Gtr II
e|--------------------------------------------|
B|--------------------------------------------|
G|--------------------------------------------|
D|--------------------------------------------|
A|-2----------3-----------5---3---6---3---5---|
E|-0----------1-----------3---1---4---1---3---|


 Riff H (Repeat 10 times)
e|-------------------------------------------------|
B|-------------------------------------------------|
G|-------------------------------------------------|
D|-------------------------------------------------|
A|-------------------------------------------------|
E|-0-0-0-0-0-0-0-0-0-0-0-0-0-0-0-0-0-0-0-0-0-0-0-0-|
   . . . . . . . . . . . . . . . . . . . . . . . . 

 e|------------------------------------------------|
B|-------------------------------------------------|
G|-------------------------------------------------|
D|-------------------------------------------------|
A|-------------------------------------------------|
E|-1-1-1-1-1-1-1-1-1-1-1-1-1-1-3-3-1-1-4-4-1-1-3-3-|
   . . . . . . . . . . . . . . . . . . . . . . . . 


 Riff I (Repeat 5 times)
e|-------------------------------------------------|
B|-------------------------------------------------|
G|-------------------------------------------------|
D|-------------------------------------------------|
A|-------------------------------------------------|
E|-0-0-0-0-1-1-1-1-1-1-1-1-0-0-0-0-2-2-2-2-2-2-2-2-|
   . . . . . . . . . . . . . . . . . . . . . . . . 
           

e|-------------------------------------|
B|-------------------------------------|
G|-------------------------------------|
D|-------------------------------------|
A|----------------------------------4--|
E|-0-0-0-0-1-1-1-1-1-1-1-1-0-0-0-0--2--|
   . . . . . . . . . . . . . . . .  
  

 Solo Rhythm (Repeat 3 times)
e|-------------------------------------------------|
B|-------------------------------------------------|
G|-------------------------------------------------|
D|-------------------------------------------------|
A|-------------------------------------------------|
E|-0-0-0-0-0-0-0-0-0-0-0-0-0-0-0-0-0-0-0-0-0-0-0-0-|
   . . . . . . . . . . . . . . . . . . . . . . . . 

 e|------------------------------------------------|
B|-------------------------------------------------|
G|-------------------------------------------------|
D|-------------------------------------------------|
A|-------------------------------------------------|
E|-1-1-1-1-1-1-1-1-1-1-1-1-1-1-3-3-1-1-4-4-1-1-3-3-|
   . . . . . . . . . . . . . . . . . . . . . . . . 

 
 Solo Rhythm (Repeat 3 times)
e|-------------------------------------------------|
B|-------------------------------------------------|
G|-------------------------------------------------|
D|-------------------------------------------------|
A|-------------------------------------------------|
E|-2-2-2-2-2-2-2-2-2-2-2-2-2-2-2-2-2-2-2-2-2-2-2-2-|
   . . . . . . . . . . . . . . . . . . . . . . . . 

e|-------------------------------------------------|
B|-------------------------------------------------|
G|-------------------------------------------------|
D|-------------------------------------------------|
A|-------------------------------------------------|
E|-3-3-3-3-3-3-3-3-3-3-3-3-3-3-5-5-3-3-6-6-3-3-5-5-|
   . . . . . . . . . . . . . . . . . . . . . . . . 


 Riff J (Repeat 4 times)
e|------------------------------------------|
B|------------------------------------------|
G|------------------------------------------|
D|------------------------------------------|
A|----------2-----------2-----------2-----3-|
E|-0-0-0-0--0--0-0-0-0--0--0-0-0-0--0--0--1-|
   . . . .     . . . .     . . . .     .        


 Riff K (Repeat 3 times)
e|--------------------|
B|--------------------|
G|--------------------|
D|--------------------|
A|------2--2--2-----3-|
E|-0-0--0--0--0--0--1-|
   . .           .     


 Riff L
e|---------------------------|
B|---------------------------|
G|---------------------------|
D|---------------------------|
A|------2--2--2----3----2--3-|
E|-0-0--0--0--0----1----0--1-|
   . .  




************************************

| .   palm mute
| /   slide up
| \   slide down
| h   hammer-on
| p   pull-off
| ~   vibrato
| +   harmonic
| x   Mute note
| b   Bend
| pb  Pre-bend
| br  Bend release
| pbr Pre-bend release
| brb Bend release bend

************************************
Добавлено: 22.06.2016
Другие материалы по этой песне:
  • Аккорды и текст

Страница создана 22.06.2016
http://primanota.ru/morgoth/from-dusk-to-dawn-chords.htm
Привет, Гость.
Предлагаем пройти революционный курс по гитаре.
Подарок от PrimaNota.Ru, забирай!