PrimaNota.ru - самый крупный в мире бесплатный архив песенных текстов, аккордов, табулатур и нот


Morcheeba - Even Though - текст песни, таба, видео

Регистрация Запомнить меня
Войти через:  Facebook Google Twitter Vk Yandex Mail.ru

Morcheeba - Even Though - текст песни, таба, видео

Печатать
Просмотров: 410
Morcheeba - Even Though

Album: Blood Like Lemonade
Tabbed By: Zienko (zienko.hun[*at*]gmail.com)

Tuning: Standard (EADGBe)
Capo: 2nd fret



Intro:

  Am                  G                   Am                  Em
E|-------0-----------|-------3-----------|-------0-----------|-------0-----------|
B|----------1--------|----------3--------|----------1--------|----------0--------|
G|--------------2----|--------------0----|--------------2----|--------------0----|
D|----2--------------|-------------------|----2--------------|-------------------|
A|-0-----------------|----2--------------|-0-----------------|----2--------------|
E|-------------------|-3-----------------|-------------------|-0-----------------|

  Am                  G                   F                   Em
E|-------0-----------|-------3-----------|-------1-----------|-------0-----------|
B|----------1--------|----------3--------|----------1--------|----------0--------|
G|--------------2----|--------------0----|--------------2----|--------------0----|
D|----2--------------|-------------------|-------------------|-------------------|
A|-0-----------------|----2--------------|----3--------------|----2--------------|
E|-------------------|-3-----------------|-1-----------------|-0-----------------|



Verse:

  Am                  G                   Am                  G
E|-------0-----------|-------3-----------|-------0-----------|-------3-----------| 
B|----------1--------|----------3--------|----------1--------|----------3--------|
G|--------------2----|--------------0----|--------------2----|--------------0----|
D|----2--------------|-------------------|----2--------------|-------------------|
A|-0-----------------|----2--------------|-0-----------------|----2--------------|
E|-------------------|-3-----------------|-------------------|-3-----------------|

  Am                  G                   F                   Em
E|-------0-----------|-------3-----------|-------1-----------|-------0-----------|
B|----------1--------|----------3--------|----------1--------|----------0--------|
G|--------------2----|--------------0----|--------------2----|--------------0----|
D|----2--------------|-------------------|-------------------|-------------------|
A|-0-----------------|----2--------------|----3--------------|----2--------------|
E|-------------------|-3-----------------|-1-----------------|-0-----------------|



Chorus:

  Am                  G                   Am                  Em
E|-------0-----------|-------3-----------|-------0-----------|-------0-----------|
B|----------1--------|----------3--------|----------1--------|----------0--------|
G|--------------2----|--------------0----|--------------2----|--------------0----|
D|----2--------------|-------------------|----2--------------|-------------------|
A|-0-----------------|----2--------------|-0-----------------|----2--------------|
E|-------------------|-3-----------------|-------------------|-0-----------------|

  Am                  G                   F                   Em
E|-------0-----------|-------3-----------|-------1-----------|-------0-----------|
B|----------1--------|----------3--------|----------1--------|----------0--------|
G|--------------2----|--------------0----|--------------2----|--------------0----|
D|----2--------------|-------------------|-------------------|-------------------|
A|-0-----------------|----2--------------|----3--------------|----2--------------|
E|-------------------|-3-----------------|-1-----------------|-0-----------------|




Bridge:

  Am           F            G
E|-------0-----------------|------------------||
B|----------1--------1-----|------------------||
G|----2-----------------2--|-------0----------||
D|-------------------------|------------------||   X4
A|-0--------------3--------|----2-------------||
E|-------------1-----------|-3----------------||



Lyrics:

Constant drifting space no fear by a pepper moon
look at all the waves down here did we peak too soon
all the deadly dreams we had that i cant believe
the universal messages that we don't receive

even though we know its forever changing
even though we know we lie and wait
even though we know the hidden danger
i hope its not too late

slowly follow shining stars for the solar flare
im on borrowed time right now running low on air
its a pity you cant see such a travesty
gonna give myself to the deep majesty

even though we know its forever changing
even though we know we lie and wait
even though we know the hidden danger
i hope its not too late

la na na naa
la na na ne naa
la la na naa na naa

even though we know its forever changing
even though we know we lie and wait
even though we know the hidden danger
i hope its not too late

even though we know its forever changing
even though we know we lie and wait
even though we know the hidden danger
i hope its not too late

la la na naa
la na na ne naa
la la na naa na naa 
Добавлено: 15.06.2012
Другие материалы по этой песне:
  • Аккорды и текст

Страница создана 15.06.2012
http://primanota.ru/morcheeba/even-though-chords.htm
Привет, Гость.
Предлагаем пройти революционный курс по гитаре.
Подарок от PrimaNota.Ru, забирай!