PrimaNota.ru - самый крупный в мире бесплатный архив песенных текстов, аккордов, табулатур и нот


Morbid Saint - Lock Up Your Children - таба, видео

Регистрация Запомнить меня
Войти через:  Facebook Google Twitter Vk Yandex Mail.ru

Morbid Saint - Lock Up Your Children - таба, видео

Печатать
Просмотров: 129
Song: Lock Up Your Children
Band: Morbid Saint
Album: Spectum Of Death (1988)
Tabbed By Dave Siddons (farmer_siddons@hotmail.com)
Tuning: Eb Ab Db Gb Bb Eb (½ Step Down)

Intro
|------------|
|------------|
|------------|
|--7----6----|
|--5----4----|
|------------|

Riff/Solo A
|---------------------------|------------------------------|
|---------------------------|------------------------------|
|---------------------------|------------------------------|
|--------8--9--------9--10--|--------10--11--------11--12--|
|--------6--7--------7---8--|---------8---9---------9--10--|
|--0--0--------0--0---------|--0--0----------0--0----------|

Riff/Solo A End
|---------------------------|--------------------------|
|---------------------------|--------------------------|
|---------------------------|--------------------------|
|--------8--9--------9--10--|--------10--11------------|
|--------6--7--------7---8--|---------8---9--7----6----|
|--0--0--------0--0---------|--0--0----------5----4----|

Verse
|--------------------------|-------------------------|
|--------------------------|-------------------------|
|--------------------------|-------------------------|
|---------------------7----|---------------7----6----|
|---------------7--8-------|---------------5----4----|
|--0-0-0--0--0-------------|--0-0-0--0--0------------|

|--------------------------|------------------------------|
|--------------------------|------------------------------|
|--------------------------|------------------------------|
|---------------------7----|------------------10--10--10--|
|---------------7--8-------|-------------------8---8---8--|
|--0-0-0--0--0-------------|--0-0-0--0--0--0--------------|


Chorus
|---------------------------|----------------------------|
|---------------------------|----------------------------|
|---------------------------|----------------------------|
|--9--------10--------9-----|-----10--------9-----10-----|
|--7---------8--------7-----|------8--------7------8-----|
|-----0--0------0--0-----0--|--0------0--0-----0------0--|

|---------------------------|----------------------------------|
|---------------------------|----------------------------------|
|---------------------------|----------------------------------|
|--9--------10--------7-----|----------------------------------|
|--7---------8--------5-----|----------------------------------|
|-----0--0------0--0-----0--|--0-0-0-0-0-0-0-0-0-0-0-0-0-0-0-0-|

|---------------------------|----------------------------|
|---------------------------|----------------------------|
|---------------------------|----------------------------|
|--9--------10--------9-----|-----10--------9-----10-----|
|--7---------8--------7-----|------8--------7------8-----|
|-----0--0------0--0-----0--|--0------0--0-----0------0--|

|---------------------------|----------------------------|
|---------------------------|----------------------------|
|---------------------------|----------------------------|
|--9--------10--------7-----|----------------------------|
|--7---------8--------5-----|------------------7----6----|
|-----0--0------0--0-----0--|--0-0-0-0-0-0-0-0-5----4----|

Bridge
|---------------------------|---------------------------|
|---------------------------|---------------------------|
|---------------------------|---------------------------|
|----------------------7----|----------------------6----|
|----------------------5----|----------------------4----|
|--0-0-0--0--0-0-0--0-------|--0-0-0--0--0-0-0--0-------|

|---------------------------|--------------------------|
|---------------------------|--------------------------|
|---------------------------|--------------------------|
|----------------------7----|--------------------------|
|----------------------5----|---------7-----------6----|
|--0-0-0--0--0-0-0--0-------|--0-0-0--5----0-0-0--4----|

Bar Before Solo
|--------------------------|---------------------------|
|--------------------------|---------------------------|
|--------------------------|---------------------------|
|--------------------------|---------------------------|
|---------7-----------6----|---------10-----------9----|
|--0-0-0--5----0-0-0--4----|--0-0-0---8----0-0-0--7----|

Solo B
|--------------------------|--------------------------|
|--------------------------|--------------------------|
|--------------------------|--------------------------|
|--------------------------|--------------------------|
|--------4--5--------5--6--|--------6--7--------7--8--|
|--0--0--------0--0--------|--0--0--------0--0--------|

Solo B End
|--------------------------|------------------------|
|--------------------------|------------------------|
|--------------------------|------------------------|
|--------------------------|------------------------|
|--------4--5--------5--6--|--------6--7--7----6----|
|--0--0--------0--0--------|--0--0--------5----4----|

Ending
|--------------------------|-------------------------|--------------|
|--------------------------|-------------------------|--------------|
|--------------------------|-------------------------|--------------|
|--------9--8--9--8--------|--9--8--9--8--------9----|--------------|
|--------7--6--7--6--------|--7--6--7--6--------7----|--9-----------|
|--0--0--------------0--0--|--------------0--0-------|--7-----------|
Добавлено: 08.03.2012
Вам также может быть интересно:
Другие материалы по этой песне:

Страница создана 08.03.2012
http://primanota.ru/morbid-saint/lock-up-your-children-chords.htm
Привет, Гость.
Предлагаем пройти революционный курс по гитаре.
Подарок от PrimaNota.Ru, забирай!