PrimaNota.ru - самый крупный в мире бесплатный архив песенных текстов, аккордов, табулатур и нот


Mor Ve Tesi - Deli - аккорды и текст, видео

Регистрация Запомнить меня
Войти через:  Facebook Google Twitter Vk Yandex Mail.ru

Mor Ve Tesi - Deli - аккорды и текст, видео

Печатать
Просмотров: 71
Deli
Mor Ve Tesi
Mor Ve Ötesi - Deli

Normal Tuning (E-A-D-G-B-e)
This is the song they played at Eurovision Song Contest 2008
It's not detailed, it's basically the chords with a few extra things which I think are important
Hope you like it.
Questions or comments? Don't be afraid to leave me a message

Intro

E5 G5 A5 A5

C5 C5 C5 C5

Guitar 1
   E5                 G5               A5                       C5
e| ----------12-0-10-0-------10-0-----9--------9---------9h10p9-8--12-12-12-12-14-14-14-14--|
B| --10-12-0----------8h10-0-----10-0--8h10-0---8-0-8h10------------------------------------|
G| 9---------------------------------------------------------------9--9--9--9--11-11-11-11--|
D| -----------------------------------------------------------------------------------------|
A| -----------------------------------------------------------------------------------------|
E| -----------------------------------------------------------------------------------------|

Guitar 2
   E5                 G5           A5                        C5
e| -----------------------------------------------------------------|
B| -----------------------------------------------------------------|
G| -----------------------------------------------------------------|
D| 14---14-14-14---12---12-12-12---11---11-11-11-11-11h12p11-10-----|
A| -----------------------------------------------------------------|
E| -----------------------------------------------------------------|


Verse

        E5         F#5
Aranıyor sahibi ruhumun
    G5           B5
Tam yerine mi düştüm
          C5        B5
Direniyor faili tutkunun
      C5        F#5
Kızmış ve küçülmüş

     E5         F#5
Aranıyor sahibi ruhumun
     G5         B5
Tam yerine mi düştüm
        C5         B5       C5       C#5
Direniyor direniyor direniyor

Chorus

B5          E5
   Beni büyütün, ağlatmayın
A5             D5 Eb5
   Sevginiz nerde övündüğünüz
B5          E5
   Beni büyütün, ağlatmayın
C5             D5 Eb5
   Sahte düşlerle oyalamayın

e| 12-12---12-12-12-|
B| 12-12---12-12-12-|
G| 12-12---12-12-12-|
D| -----------------|
A| -----------------|
E| -----------------|


Verse

        E5         F#5
Aranıyor sahibi ruhumun
    G5           B5
Tam yerine mi düştüm
          C5        B5
Direniyor faili tutkunun
      C5        F#5
Kızmış ve küçülmüş

     E5         F#5
Aranıyor sahibi ruhumun
     G5         B5
Tam yerine mi düştüm
        C5         B5       C5       C#5
Direniyor direniyor direniyor

Chorus

B5          E5
   Beni büyütün, ağlatmayın
A5             D5 Eb5
   Sevginiz nerde övündüğünüz
B5          E5
   Beni büyütün, ağlatmayın
C5             D5 Eb5
   Sahte düşlerle

Interlude

E5         G5            A5
  Bir akıllı bir yarım deli
C5                C5            B5
  Dört yanım akıllı bir yanım deli
(2nd guitarist plays intro again)
E5           G5           A5
  Herkes akıllı bir ben deli
C5
  Bir ben deli bir ben deli


Chorus

B5          E5
   Beni büyütün, ağlatmayın
A5             D5 Eb5
   Sevginiz nerde övündüğünüz
B5          E5
   Beni büyütün, ağlatmayın
C5             D5 Eb5
   Sahte düşlerle oyalamayın


Outro

e| 0------------0----------------|
B| 0------------0----------------|
G| 0------------0----------------|        4x
D| 0-9--9--7-9--0-9--9--7-9-12b--|
A| 0-9--9--7-9--0-9--9--7-9-12b--|
E| 0-7--7--5-7--0-7--7--5-7-10b--|
Добавлено: 04.04.2016
Другие материалы по этой песне:
  • Аккорды и текст

Страница создана 04.04.2016
http://primanota.ru/mor-ve-tesi/deli-chords.htm
Привет, Гость.
Предлагаем пройти революционный курс по гитаре.
Подарок от PrimaNota.Ru, забирай!