PrimaNota.ru - самый крупный в мире бесплатный архив песенных текстов, аккордов, табулатур и нот


M.O.P. - Fish Out Of Water - таба, видео

Регистрация Запомнить меня
Войти через:  Facebook Google Twitter Vk Yandex Mail.ru

M.O.P. - Fish Out Of Water - таба, видео

Печатать
Просмотров: 64
moshbaby  jonadean@hotmail.com>
++++++++++++++++++++++++++++++++++

    O P M  -  "Fish outta water"

++++++++++++++++++++++++++++++++++
Album: Menace to Sobriety
++++++++++++++++++++++++++++++++++

~ here in standard


VERSE
---------------------------
---------------------------
------------2--------------
--------2-3---3--2-2-3/5---
----2-3--------------------
--3------------------------

/

---------------------------
---------------------------
---------------------------
--------2-3-7--------------
----2-3-------7--7-7-8/10--
--3------------------------



G  F  A# C
--------------
--------------
--------------
-------3--5---
-5--3--1--3---
-3--1---------
"By now..."



PRE
    G       C             G    F   A#

-----|--3----8--|-----|--3--|----------
-----|--3----8--|-----|--3--|----------
-----|--4----9--|-----|--4--|----------
-5\--|--5---10--|-5\--|--5--|--3\---3--
-5\--|--5---10--|-5\--|--5--|--3\---1--
-3\--|----------|-3\--|-----|--1\---1--
"Marco Polo"



CHORUS

  G   C   F   C      G   C   F   G     F/G ...
------------------|-----------------||------
------------------|-----------------||------
------5--10-------|------5----------||------
--5---5--10--10---|--5---5---3---5--||-3/5--
--5---3---8--10---|--5---3---3---5--||-3/5--
--3-----------8---|--3-------1---3--||-1/3--





BRIDGE
dist

----------------------------|-----
----------------------------|-----
----4-5---------------------|-----
--5-4-5-2-3-2-2-2-2--3-5-5--|-5\--
--5-2-3-2-3-0-2-2-2--3-5-5--|-5\--
--3-----0-1---0-0-0--1-3-3--|-3\--


moshbabyHR jonadean@hotmail.com> 2002/01
     
Добавлено: 25.09.2013
Другие материалы по этой песне:
  • Аккорды и текст

Страница создана 25.09.2013
http://primanota.ru/mop/fish-out-of-water-chords.htm
Привет, Гость.
Предлагаем пройти революционный курс по гитаре.
Подарок от PrimaNota.Ru, забирай!