PrimaNota.ru - самый крупный в мире бесплатный архив песенных текстов, аккордов, табулатур и нот


M.O.P. - Brighter Side - таба, видео

Регистрация Запомнить меня
Войти через:  Facebook Google Twitter Vk Yandex Mail.ru

M.O.P. - Brighter Side - таба, видео

Печатать
Просмотров: 133
moshbaby  jonadean@hotmail.com>
++++++++++++++++++++++++++++++++++

    O P M  -  "Brighter Side"

++++++++++++++++++++++++++++++++++
Album: Menace to Sobriety
++++++++++++++++++++++++++++++++++

~ here in standard *)



cm#  A   E   B
---------------------
--5------------------
--6---6---9---8------
--6---7---9---9------
--4---7---7---9------
--4---5---7---7------



cm#         A    E       B
-----------------------------------
-----------------------------------
-----------------------------------
---------6-------------------------
--4-4--7---------7-7--6-4----------
------------5-5-----------7--|-7-8-




PRE-CHORUS & end of CHORUS

   A    G#
clean/dist

--(5)---(4)---
--(5)---(4)---
--(6)---(5)---
--(7)---(6)---
---7-----6----
---5-----4----


fill
   A     G#
----------------
----------------
----------------
------------6---
---7-9-7-6------
----------------



[live]
  A   B A   G#
--5-------------
--5---7-5---4---
--6---8-6---5---
--7---9-7---6---
--7---9-7---6---
--5---7-5---4---



CHORUS:
(reggae)

cm#   A   E   B

------5-------7----
--5---5---9---7----
--6---6---9---8----
--6---7---9---9----
--4---7---7---9----
--4---5---7---7----



BRIDGE:

*) there's this clean tuned down acoustic

    cm#  D#  E F#  cm#
Eb|---------------(0)---
Bb|----------------3----
Gb|----------------2----
Db|--0-2-3---5-----0----
Ab|--0-2-3---5-----0----
Db|--0-2-3---5-----0----


in standard just play:

cm#   D#   E     F#    cm#
----------------------------
-----------------------5----
-----------------------6----
-(6)--(8)--(9)---4-----6----
--4----6----7----4-----4----
--4- --6----7----2-----4----


moshbabyHR jonadean@hotmail.com> 2002/01


     
Добавлено: 05.08.2013
Вам также может быть интересно:
Другие материалы по этой песне:
  • Аккорды и текст

Страница создана 05.08.2013
http://primanota.ru/mop/brighter-side-chords.htm
Привет, Гость.
Предлагаем пройти революционный курс по гитаре.
Подарок от PrimaNota.Ru, забирай!