PrimaNota.ru - самый крупный в мире бесплатный архив песенных текстов, аккордов, табулатур и нот


M.O.P. - 15 Minutes - аккорды и текст, видео

Регистрация Запомнить меня
Войти через:  Facebook Google Twitter Vk Yandex Mail.ru

M.O.P. - 15 Minutes - аккорды и текст, видео

Печатать
Просмотров: 147
15 Minutes
M.O.P.
++++++++++++++++++++++++++++++++++

    O P M  -  "15 Minutes"

++++++++++++++++++++++++++++++++++
Album: Menace to Sobriety
++++++++++++++++++++++++++++++++++



CHORUS

D  A#  C  G    D  A#  C  D#  F
--------------|------------------
--------------|------------------
-7--3--5------|-----------8--10--
-7--3--5--5---|-----------8--10--
-5--1--3--5---|-----------6---8--
----------3---|------------------




VERSE

  G  A#  C   D#   F
------------------------
------------------------
------3-5----8--10------
--5---3-5----8--10------
--5---1-3----6---8------
--3---------------------


moshbabyHR jonadean@hotmail.com> 2002/01
     
Добавлено: 17.06.2013
Другие материалы по этой песне:
  • Аккорды и текст

Страница создана 17.06.2013
http://primanota.ru/mop/15-minutes-chords.htm
Привет, Гость.
Предлагаем пройти революционный курс по гитаре.
Подарок от PrimaNota.Ru, забирай!