PrimaNota.ru - самый крупный в мире бесплатный архив песенных текстов, аккордов, табулатур и нот


Moose Blood - I Hope Youre Miserable - таба, видео

Регистрация Запомнить меня
Войти через:  Facebook Google Twitter Vk Yandex Mail.ru

Moose Blood - I Hope Youre Miserable - таба, видео

Печатать
Просмотров: 108
Intro


e|---------------------------------------:|
B|---------------------------------------:|
G|----------4-4--------------------------:|
D|-5-5-5-5--4-4--------------------------:|
A|-5-5-5-5--2-2--------------------------:| x2
E|-3-3-3-3-------------------------------:|


e|---------------------------------------:|
B|---------------------------------------:|
G|----------4-4--------------------------:|
D|-5-5-5-5--4-4--7---7-7-7---------------:|
A|-5-5-5-5--2-2--7---7-7-7---------------:| 
E|-3-3-3-3-------5---5-5-5---------------:|

Verse (the same as intro)

e|---------------------------------------:|
B|---------------------------------------:|
G|----------4-4--------------------------:|
D|-5-5-5-5--4-4--------------------------:|
A|-5-5-5-5--2-2--------------------------:| 
E|-3-3-3-3-------------------------------:|


e|---------------------------------------:|
B|---------------------------------------:|
G|----------4-4--------------------------:|
D|-5-5-5-5--4-4--7---7-7-7---------------:|
A|-5-5-5-5--2-2--7---7-7-7---------------:| 
E|-3-3-3-3-------5---5-5-5---------------:|

Solo
e|----0---------0------------------------:|
B|-------5---------5---------------------:|
G|-7---------4---------------------------:|
D|---------------------------------------:| x15
A|---------------------------------------:|
E|---------------------------------------:|


e|---------------------------------------:|
B|---------------------------------------:|
G|---------2-----------------------------:|
D|-4^~-2-4---5--4^~----------------------:| 
A|---------------------------------------:| 
E|---------------------------------------:|

e|---------------------------------------:|
B|---------------------------------------:|
G|---------2-----------------------------:|
D|-----2-4---5--4^~----------------------:| x2
A|---------------------------------------:| 
E|---------------------------------------:|


e|---------------------------------------:|
B|---------------------------------------:|
G|---------2-----------------------------:|
D|-4^~-2-4---5--4^~-2^~------------------:| 
A|---------------------------------------:| 
E|---------------------------------------:|

Before "I'll keep you in mind..."
e|----------0----------------------------:|
B|----------0----------------------------:|
G|----------2----------------------------:|
D|-4^~-2^---2----------------------------:| 
A|---------------------------------------:| 
E|---------------------------------------:|


Outro
e|---------------------------------------:|
B|---------------------------------------:|
G|-7-------------------------------------:|
D|-7-7--4~5------------------------------:| 
A|-5-5--4~5------------------------------:| 
E|---7--2~3------------------------------:|


This is my first tab, maybe it's not too accurate but it's close
Добавлено: 18.10.2015
Другие материалы по этой песне:
  • Аккорды и текст

Страница создана 18.10.2015
http://primanota.ru/moose-blood/i-hope-youre-miserable-chords.htm
Привет, Гость.
Предлагаем пройти революционный курс по гитаре.
Подарок от PrimaNota.Ru, забирай!