PrimaNota.ru - самый крупный в мире бесплатный архив песенных текстов, аккордов, табулатур и нот


Moore Geoff And The Distance - Today - таба, видео

Регистрация Запомнить меня
Войти через:  Facebook Google Twitter Vk Yandex Mail.ru

Moore Geoff And The Distance - Today - таба, видео

Печатать
Просмотров: 80
Уроки эстрадного вокала в Санкт-Петербурге
		   Song: Today
Author: Geoff Moore, Tedd T., and Brent Milligan
Album: Greatest Hits 
Band: Geoff Moore and the Distance
Tabber: Joel Ogden (Auggy1255@aol.com)

This is an awesome song. I figured this out a long time ago but
haven't gotten around to writting out, until now. Sorry I didn't
include the words, but there isn't a lyrics sheet so I didn't want
to spend the time listening to the music. This should get you along 
for the majority of it. I hope it is understandable. 


Intro: E D A G A G A G A G (4x)

Verse 1: E C A (4x)

Bridge 1: B G D A (2x)

Chorus: E C A G (4x)

Verse 2: (Same as Verse 1)

(Bridge 1)

(Chorus)

Bridge 2: (Solo Guitar, then rest of band)

***(Play 2x)***
E|-----------------------------------
B|-----------------------------------
G|-----------------------------------
D|-----------------------------------
A|-----------1-0---0-1-0---0-----
E|-0-0-3-0-----3---------3-------

***(play 4x)***
E|---------------------------------
B|---------------------------------
G|---------------------------------
D|------5---8-7-5-7-8-7-5-7-
A|-7-7---7-----------------------
E|---------------------------------

(Chorus)

Ending: E A G# A G# A  
        
            F C B C B C (3x)

            E A G# A G# A
        
            G D C# D C# D E

     
Добавлено: 12.07.2013
Другие материалы по этой песне:
  • Аккорды и текст

Страница создана 12.07.2013
http://primanota.ru/moore-geoff-and-the-distance/today-chords.htm
Привет, Гость.
Предлагаем пройти революционный курс по гитаре.
Подарок от PrimaNota.Ru, забирай!