PrimaNota.ru - самый крупный в мире бесплатный архив песенных текстов, аккордов, табулатур и нот


Moonspell - Vc Gloria Domini - текст песни, бас-таба, видео

Регистрация Запомнить меня
Войти через:  Facebook Google Twitter Vk Yandex Mail.ru

Moonspell - Vc Gloria Domini - текст песни, бас-таба, видео

Печатать
Просмотров: 223
Авторы музыки: Moonspell
Авторы текста: Fernando Ribeiro
SONG:V.C. (GLORIA DOMINI) 
ALBUM:SIN (PECADO) (TRACK Nº7,4:59,1997 CENTURY MEDIA) 
MUSIC:MOONSPELL 
LYRICS:FERNANDO RIBEIRO 
BASS PLAYER:SÉRGIO CRESTANA 
BASS TABLATURE:NARCISO (PT) (GOTHBASS31@VAMPIREFREAKS.COM) 

RIFF I 
G|-----| 
D|-----| 
A|-3\7-| 
E|-----| 

RIFF II 
G|-------| 
D|-------| 
A|-----8-| 
E|-3\8---| 

RIFF III 
G|---------| 
D|-------7-| 
A|-8-7-5---| 
E|---------| 

RIFF IV 
G|-------| 
D|-------| 
A|-2-3-2-| 
E|-------| 

RIFF V 
G|----------------------------------------------------------------------------------------------| 
D|----------------------------------------------------------------------------------------------| 
A|------------------------------------------------------------------5-5-5-5-5-5-5-5-5-5---------| 
E|-5-5-5-5-5-5-5-5-5-5-3-5-5-5-5-5-5-5-5-5-5-3-1-1-1-1-1-1-1-1-1-1-3--------------------------3-| 

RIFF VI 
G|-------------------------------| 
D|-------------------------------| 
A|-------------------------------| 
E|-5-5-5-5-5-5-5-5-5-5-5-5-5-5-3-| 

RIFF VII 
G|--------------------------------------------------------| 
D|---------------------------------------------7----------| 
A|------------------------------2--------8-7-5----5-5-5-5-| 
E|-5-5-5-5-5-5-5-5-5-5-5-5-5-5----3-1---------------------| 

RIFF VIII 
G|-----------------------------------| 
D|-----------------------------------| 
A|-----------------------------------| 
E|-3-2-5-5-5-5-5-5-5-5-5-5-5-5-5-5-3-| 

RIFF IX 
G|----------------| 
D|----------------| 
A|----------------| 
E|-5—-5—-5—-5---5-| 

RIFF XX 
G|-------------| 
D|-----7-------| 
A|-------------| 
E|-5-5---5-5-5-| 

RIFF XI 
G|-------------| 
D|-----3-------| 
A|-------------| 
E|-1-1---1-1-1-| 

RIFF XII 
G|-------7-------| 
D|---------------| 
A|-5-5-5---3-3-3-| 
E|---------------| 

RIFF XIII 
G|----14\-| 
D|--------| 
A|-12-----| 
E|--------| 

RIFF XIV 
G|------------------------------------------| 
D|------------------------------------------| 
A|---------------------------------5--------| 
E|-5-5-5-5-5-5-5-5-5-5-5-5-5-5--1-----5-3-5-| 

STRUCTURE: 
RIFF I (2X) (00:17) 
RIFF II(1X) (00:25) 
RIFF III(1X)(00:29) 
RIFF IV (3X)(00:33) 
RIFF V (2X) (00:34) 
RIFF VI (3X)(01:05) 
RIFF VII(1X) (01:10) 
RIFF III(1X) (01:22) 
RIFF VIII(1X)(01:29) 
RIFF VI (3X) (01:33) 
RIFF VII(1X) (01:44) 
RIFF III(1X) (01:48) 
RIFF VIII(1X)(01:55) 
RIFF VI (3X) (01:59) 
RIFF VII (1X)(02:12) 
RIFF III (1X)(02:16) 
RIFF VIII(1X)(02:23) 
RIFF VI  (3X) (02:27) 
RIFF VII (1X) (02:30) 
RIFF III (1X) (02:44) 
RIFF IX  (4X) (02:49) 
RIFF X   (3X) (03:05) 
RIFF XI  (3X) (03:13) 
RIFF XII (3X) (03:17) 
RIFF X   (3X) (03:21) 
RIFF XI  (3X) (03:30) 
RIFF XII (3X) (03:33) 
RIFF XIII(8X) (03:38) 
RIFF VI  (4X) (03:54) 
RIFF V   (1X) (04:10) 
RIFF VI  (3X) (04:17) 
RIFF XIV (1X) (04:29) 

SYMBOLS: 
\ :SLIDE DOWN
Добавлено: 26.03.2012
Другие материалы по этой песне:
  • Аккорды и текст

Страница создана 26.03.2012
http://primanota.ru/moonspell/vc-gloria-domini-chords.htm
Привет, Гость.
Предлагаем пройти революционный курс по гитаре.
Подарок от PrimaNota.Ru, забирай!