PrimaNota.ru - самый крупный в мире бесплатный архив песенных текстов, аккордов, табулатур и нот


Moonspell - Trebaruna - текст песни, бас-таба, видео

Регистрация Запомнить меня
Войти через:  Facebook Google Twitter Vk Yandex Mail.ru

Moonspell - Trebaruna - текст песни, бас-таба, видео

Печатать
Просмотров: 221
Уроки эстрадного вокала в Санкт-Петербурге
Авторы музыки: Moonspell
Авторы текста: Langsuyar
SONG:TREBARUNA 
ALBUM:WOLFHEART (TRACK Nº5,03:29,1995 CENTURY MEDIA) 
MUSIC:MOONSPELL 
LYRICS:LANGSUYAR (FERNANDO RIBEIRO) 
BASS PLAYER:ARES (now singer on Deepskin) 
BASS TABLATURE:NARCISO (PT) (GOTHBASS31@VAMPIREFREAKS.COM) 

RIFF I 
G|---------------------------------------------------------------------| 
D|---------------------------------------------------------------------| 
A|---------2-2----------7-7-7-5-5-5----------2-2----------3-3-3-2-2-2--| 
E|-0-0-0-0-----3-3-3-3---------------0-0-0-0-----3-3-3-3---------------| 

RIFF II 
G|----------------------------------------------------------------------| 
D|----------------------------------------------------------------------| 
A|---------2-2----------7-7-7-5-5-5----------2-2----------3-3-3-2-2-2-0-| 
E|-0-0-0-0-----3-3-3-3---------------0-0-0-0-----3-3-3-3----------------| 

RIFF III 
G|---------------------------------------------------| 
D|---------------------------------------------------| 
A|-------------------------2-2-2-2-2-2---------------| 
E|-3-3-3-3-3-3-2-2-2-2-2-2--------------0-0-0-0-0-0--| 

STRUCTURE: 
RIFF I  (4X) (00:24) 
RIFF II (1X) (00:57) 
RIFF III(4X) (01:07) 
RIFF I  (4X) (01:30) 
RIFF II (1X) (02:03) 
RIFF III(4X) (02:13) 
RIFF I  (4X) (02:36) 

 
Добавлено: 11.07.2012
Другие материалы по этой песне:

Страница создана 11.07.2012
http://primanota.ru/moonspell/trebaruna-chords.htm
Привет, Гость.
Предлагаем пройти революционный курс по гитаре.
Подарок от PrimaNota.Ru, забирай!