PrimaNota.ru - самый крупный в мире бесплатный архив песенных текстов, аккордов, табулатур и нот


Moonspell - Rapaces - текст песни, бас-таба, видео

Регистрация Запомнить меня
Войти через:  Facebook Google Twitter Vk Yandex Mail.ru

Moonspell - Rapaces - текст песни, бас-таба, видео

Печатать
Просмотров: 148
ARTIST:MOONSPELL
MUSIC:RAPACES (Darkness and Hope,2001 Century Media,Track 7 5:31)
BASS PLAYER:SÉRGIO CRESTANA
BASS TABLATURE:ANTÓNIO NARCISO (PT) Email:GOTHBASS31@VAMPIREFREAKS.COM

RIFF 1
E----------------------0-0-0-0-0-0-0-0-|
A-5-5-3-5-3-3-3-5 ---------------------|
D--------------------------------------|
G--------------------------------------|

RIFF 2
E-5-5-5-5-5-5-5-5-0-0-0-0-0-0-0-0-0-3-3-3-3-3-3-3-3-----------------------------|
A---------------------------------------------------------------5-5-5-5-5-5-5-5-|
D-------------------------------------------------------------------------------|
G-------------------------------------------------------------------------------|

RIFF 3
E-5-5-5-6-6-6-8-8-|
A-----------------|
D-----------------|
G-----------------|

STRUCTURE:
RIFF 1 12X(00:25)
RIFF 2 2X (01:50)
RIFF 3 8X (02:19)
RIFF 1 4X (02:33)
RIFF 2 2X (03:02)
RIFF 3 8X (03:30)
RIFF 1 2X (03:58)
RIFF 3 2X (04:09)
RIFF 1 2X (04:12)
RIFF 3 2X (04:23)
RIFF 2 2X (04:41)
Добавлено: 30.06.2012
Другие материалы по этой песне:

Страница создана 20.03.2012
http://primanota.ru/moonspell/rapaces-chords.htm
Привет, Гость.
Предлагаем пройти революционный курс по гитаре.
Подарок от PrimaNota.Ru, забирай!