PrimaNota.ru - самый крупный в мире бесплатный архив песенных текстов, аккордов, табулатур и нот


Moonspell - Moon In Mercury - текст песни, бас-таба, видео

Регистрация Запомнить меня
Войти через:  Facebook Google Twitter Vk Yandex Mail.ru

Moonspell - Moon In Mercury - текст песни, бас-таба, видео

Печатать
Просмотров: 144
ARTIST:MOONSPELL
MUSIC:MOON IN MERCURY (NIGHT ETERNAL,2008 UNIVERSAL TRACK 5 04:20)
BASS PLAYER:NICLAS ETELAVUORI/AIRES PEREIRA
BASS TAB:ANTÓNIO NARCISO (PT) EMAIL:GOTHBASS31@VAMPIREFREAKS.COM

Riff 1
E-5-5-5-5-----------5-5-5-5-1-1-3-3-|
A-----------3-3-3-3-----------------|
D-----------------------------------|
G-----------------------------------|

Riff 2
E-5-5-5-5-----------5-5-5-5-1-3------5-|
A-----------3-3-3-3--------------3-2---|
D--------------------------------------|
G--------------------------------------|

Riff 3
E-2-2-2-2-2-2-2-2-2-2-2-2--0-0-0-0-|
A----------------------------------|
D----------------------------------|
G----------------------------------|

Riff 4
E-5-5-5-5-----------------7-7-7-7-|
A---------7-7-7-7-5-5-5-5---------|
D---------------------------------|
G---------------------------------|

Riff 5
E-2-2-2-2-2-2-2-2-2-2-2-2-1-1-1-5-5-|
A-----------------------------------|
D-----------------------------------|
G-----------------------------------|

Riff 6
E-0-0-0-0-0-0-0-0-2-2-2-2-2-2-2-2-3-3-3-3-3-3-3-3-----------------|
A-------------------------------------------------2-2-2-2-2-2-2-2-|
D-----------------------------------------------------------------|
G-----------------------------------------------------------------|

Riff 7
E-2-2-2-2-0-2-2-2-2-0-2-2-|
A-------------------------|
D-------------------------|
G-------------------------|

STRUCTURE:
RIFF 1 1X (00:02)
RIFF 2 1X (00:08)
RIFF 1 1X (00:14)
RIFF2  1X (00:20)
RIFF 3 1X (00:26)
RIFF 4 2X (00:38)
RIFF 5 2X (00:50)
RIFF 1 1X (01:02)
RIFF 2 1X (01:08)
RIFF 1 1X (01:14)
RIFF 2 1X (01:20)
RIFF 3 4X (01:26)
RIFF 1 1X (01:50)
RIFF 2 1X (01:56)
RIFF 5 4X (02:08)
RIFF 6 4X (02:38)
RIFF4  1X (03:32)
RIFF 5 5X (03:38)
RIFF 7  X (04:14)
Добавлено: 09.05.2012
Другие материалы по этой песне:
  • Аккорды и текст

Страница создана 09.05.2012
http://primanota.ru/moonspell/moon-in-mercury-chords.htm
Привет, Гость.
Предлагаем пройти революционный курс по гитаре.
Подарок от PrimaNota.Ru, забирай!