PrimaNota.ru - самый крупный в мире бесплатный архив песенных текстов, аккордов, табулатур и нот


Moonspell - How We Became Fire - текст песни, бас-таба, видео

Регистрация Запомнить меня
Войти через:  Facebook Google Twitter Vk Yandex Mail.ru

Moonspell - How We Became Fire - текст песни, бас-таба, видео

Печатать
Просмотров: 134
ARTIST:MOONSPELL :twisted:
MUSIC:HOW WE BECAME FIRE (Darkness and Hope,2001 Century Media,Track 9 5:47)
BASS PLAYER:SÉRGIO CRESTANA
BASS TABLATURE:ANTÓNIO NARCISO (PT) Email:GOTHBASS31@VAMPIREFREAKS.COM

RIFF 1
E-0-5-7-5-7-0-2-3-3-2-0-|
A-----------------------|
D-----------------------|
G-----------------------|

RIFF 2
E------------------------------------5-5-5-5-5-5-|
A--------3-3-3--------5-5-5----------------------|
D-5-7-5--------5-7-5--------5-7-5----------------|
G------------------------------------------------|

RIFF 3
E-1-1-1-1-1-1-1-1-3-3-3-3-3-3-3-3-5-5-5-5-5-5-5-5-5-5-5-5-5-5-5-5-5-1-1-1-1-1-1-1-|
A---------------------------------------------------------------------------------|
D---------------------------------------------------------------------------------|
G---------------------------------------------------------------------------------|

1-3-3-3-3-3-3-3-3-5-|
--------------------|
--------------------|
--------------------|

RIFF 4
E-1-1-1-1-1-1-1-1-3-3-3-3-3-3-3-3-5-5-5-5-5-5-5-5-5-5-5-5-5-5-5-5-5------------------|
A------------------------------------------------------------------------------------|
D------------------------------------------------------------------------------------|
G------------------------------------------------------------------------------------|

RIFF 5
E-0--0--0------|..
A--------------|
D--------------|
G--------------|

STRUCTURE:
RIFF 1 4X (00:04)
RIFF 2 2X (00:17)
RIFF 1 8X (00:44)
RIFF 2 2X (01:10)
RIFF 3 1X (01:36)
RIFF 1 8X (02:03)
RIFF 4 6X (02:30)
RIFF 4 4X (04:15)
RIFF 5 ..X(05:08)
Добавлено: 30.06.2012
Другие материалы по этой песне:
  • Аккорды и текст

Страница создана 30.06.2012
http://primanota.ru/moonspell/how-we-became-fire-chords.htm
Привет, Гость.
Предлагаем пройти революционный курс по гитаре.
Подарок от PrimaNota.Ru, забирай!