PrimaNota.ru - самый крупный в мире бесплатный архив песенных текстов, аккордов, табулатур и нот


Moonspell - Herr Spiegelmann - текст песни, бас-таба, видео

Регистрация Запомнить меня
Войти через:  Facebook Google Twitter Vk Yandex Mail.ru

Moonspell - Herr Spiegelmann - текст песни, бас-таба, видео

Печатать
Просмотров: 126
Авторы музыки: Moonspell
Авторы текста: Fernando Ribeiro
SONG:HER SPIEGELMANN
ALBUM:IRRELIGIOUS (TRACK 10,04:34,1996 CENTURY MEDIA)
MUSIC:MOONSPELL
LYRICS:FERNANDO RIBEIRO
BASS PLAYER:ARES (now singer on deepskin)
BASS TABLATURE:NARCISO (GOTHBASS31@HOTMAIL.COM)

RIFF I
G|------------------------------------------------------------------------------|
D|------------------------------------------------------------------------------|
A|------------------------------------------------------------------------------|
E|-0-0-0-0-0-0-0-0-0-0-5-7-0-0-0-0-0-0-0-—0-0-0-0-0-0-0-0-0-0-5-7-0-0-0-0-0-0-0-|

RIFF II
G|-------------------------------------------------------------------|
D|-------------------------------------------------------------------|
A|-----------------------------------2-2-2-2-2-2-2-2-3-3-3-3-3-3-3-3-|
E|-0-0-0-0-0-0-0-0-3-3-3-3-3-3-3-3-----------------------------------|

RIFF III
G|-----------------------------------------------------------------|
D|-----------------------------------------------------------------|
A|---------------------------------2-2-2-2-2-2-2-2-3-3-3-3-3-3-3-0-|
E|-0-0-0-0-0-0-0-0-3-3-3-3-3-3-3-3---------------------------------|

RIFF IV
G|-----------------------|
D|-----------------------|
A|-----------------------|
E|-0-0-0-0-0-0-0-0-0-0-0-|

RIFF V
G|-----------|
D|-----------|
A|-----------|
E|-0-0-0-0\5-|

RIFF VI
G|---------------------|
D|---------------------|
A----------------------|
E|-0-0-0-0-0-0-0-0-5-7-|

RIFF VII
G|-------9--------9-------7-------7------4-------4-------5-------5-|
D|-----------------------------------------------------------------|
A|-7-7-7---7-7-7---5-5-5---5-5-5---2-2-2---2-2-2---3-3-3---3-3-3---|
E|-----------------------------------------------------------------|

RIFF VIII
G|--------9--------4--------5--------7-|
D|-------------------------------------|
A|-7-7-7----2-2-2----3-3-3----5-5-5----|
E|-------------------------------------|

RIFF IX
G|-------9-----------7------------4------------5-----------------9-----------7----|
D|--------------------------------------------------------------------------------|
A--7-7-7---7-9-5-5-5---5-7-2-2-2---2-4-3-3-3---\10-9-10-7-7-7---7-9-5-5-5---7-9-2-|
E|--------------------------------------------------------------------------------|

--------4-----------5--------|
-----------------------------|
2-2---2-4-3-3-3---\10-9-10-7-|
-----------------------------|

STRUCTURE:
RIFF I  (1X) (00:14)
RIFF II (1X) (00:23)
RIFF III(1X) (00:31)
RIFF IV (15X) (00:56)
RIFF V  (1X) (01:27)
RIFF II (4X) (01:32)
RIFF IV (1X) (02:06)
RIFF VI (1X) (02:05)
RIFF IV (1X) (02:07)
RIFF VI (1X) (02:09)
RIFF IV (1X) (02:11)
RIFF VI (1X) (02:13)
RIFF IV (1X) (02:15)
RIFF VI (1X) (02:17)
RIFF IV (1X) (02:19)
RIFF VI (1X) (02:21)
RIFF IV (1X) (02:23)
RIFF VI (1X) (02:25)
RIFF IV (1X) (02:27)
RIFF VI (1X) (02:29)
RIFF IV (1X) (02:31)
RIFF VI (1X) (02:33)
RIFF V  (1X) (02:35)
RIFF II (2X) (02:41)
RIFF VII(2X) (02:57)
RIFF VIII(1X)(03:14)
RIFF II (2X) (03:22)
RIFF IX (2X) (03:39)

SYMBOLS:
\:SLIDE DOWN
Добавлено: 04.06.2012
Другие материалы по этой песне:

Страница создана 04.06.2012
http://primanota.ru/moonspell/herr-spiegelmann-chords.htm
Привет, Гость.
Предлагаем пройти революционный курс по гитаре.
Подарок от PrimaNota.Ru, забирай!