PrimaNota.ru - самый крупный в мире бесплатный архив песенных текстов, аккордов, табулатур и нот


Moonspell - Firewalking - текст песни, бас-таба, видео

Регистрация Запомнить меня
Войти через:  Facebook Google Twitter Vk Yandex Mail.ru

Moonspell - Firewalking - текст песни, бас-таба, видео

Печатать
Просмотров: 163
Авторы музыки: Ricardo Amorim, Mike Gaspar, Fernando Ribeiro, Sérgio Crestana, Pedro Paixão
Авторы текста: Fernando Ribeiro
SONG: FIREWALKING
ALBUM: DARKNESS AND HOPE (TRACK Nº2, 3:05, 2001 CENTURY MEDIA)
MUSIC: MOONSPELL LYRICS: FERNANDO RIBEIRO
BASS PLAYER: SÉRGIO CRESTANA
BASS TABLATURE: NARCISO (PT) (NARCISO@VAMPIREFREAKS.COM)

Riff 1
G|--------------------------------------------------|
D|--------------------------------------------------|
A|-------------------------3-3-3-3-3-3-2-2-2-2-2-2--|
E|-0-0-0-0-0-0-0-0-0-0-0-0--------------------------|

Riff 2
G|------------------------------------------------------------------------------------------|
D|------------------------------------------------------------------------------------------|
A|-------------------------3-3-3-3-3-3-3-3-3-3-5-5-5-5-5-6-6-6-6-6--------------------------|
E|-0-0-0-0-0-0-0-0-0-0-0-0-----------------------------------------0-0-0-0-0-0-0-0-0-0-0-0--|

Riff 3
G|------------------------------------------------------------------|
D|------------------------------------------------------------------|
A|-5-5-5-5-5-5-5-5-5-5-5-5-5-5-5-5----------------------------------|
E|---------------------------------1-1-1-1-1-1-1-1-3-3-3-3-3-3-3-3--|

Riff 4
G|--------------------------|
D|--------------------------|
A|--------3-3----5-5-5-5-5--|
E|-0-0----------------------|

Riff 5
G|--------------------|
D|--------------------|
A|--------------------|
E|-/-7-7-7-7-7-7-7-7--|

Riff 6
G|------|
D|------|
A|------|
E|-0-0--|
Structure:
Riff 1 (2x) (00:13)
Riff 2 (2x) (00:26)
Riff 1 (2x) (00:52)
Riff 2 (2x) (01:05)
riff 3 (4x) (01:32)
RIFF 4 (2X) (01:57)
RIFF 5 (1X) (02:22)
Riff 2 (4x) (02:24)
Riff 6 (1x) (02:49)
Добавлено: 29.05.2012
Другие материалы по этой песне:

Страница создана 29.05.2012
http://primanota.ru/moonspell/firewalking-chords.htm
Привет, Гость.
Предлагаем пройти революционный курс по гитаре.
Подарок от PrimaNota.Ru, забирай!