PrimaNota.ru - самый крупный в мире бесплатный архив песенных текстов, аккордов, табулатур и нот


Moonspell - Crystal Gazing - текст песни, бас-таба, видео

Регистрация Запомнить меня
Войти через:  Facebook Google Twitter Vk Yandex Mail.ru

Moonspell - Crystal Gazing - текст песни, бас-таба, видео

Печатать
Просмотров: 127
ARTIST:MOONSPELL
MUSIC: CRYSTAL GAZING (THE ANTIDOTE,2003 CENTURY MEDIA,TRACK 9 04:51)
BASS PLAYER:NICLAS ETELAVUORI (WWW.AMORPHIS.NET)
BASS TABLATURE:ANTÓNIO NARCISO (PT) Email:GOTHBASS31@VAMPIREFREAKS.COM

RIFF 1
E-5-5-5-5-5-5-5-5-5-5-5-5-5-5-5-5--------------------|
A--------------------------------------5-5-5-5-7-7-7-|
D----------------------------------------------------|
G----------------------------------------------------|

RIFF 2
-5…-
----
----
----

RIFF 3
---------------------------------------------------|
-5-5-5-5-5-5-5-5-5-5-7-8-7-7-7-7-7-3-3-3-3-3-3-3-3-|
---------------------------------------------------|
---------------------------------------------------|

RIFF 4
-7-5-5-7-5-|
-----------|
-----------|
-----------|

RIFF 5
--------------|
----------5---|
-3--3-5-------|
--------------|

RIFF 6
--------------------------------------|
----------------------5-5-5-5-5-5-5-5-|
-3-3-3-3-3-3-3-5----------------------|
--------------------------------------|

RIFF 7
-5-5-5-5-5-5-5-5-3-3-|
---------------------|
---------------------|
---------------------|

RIFF 8
---------|
-8-8-7-5-|
---------|
---------|


Structure:
Riff 1 2x (00:28)
Riff 2 1x (00:41)
Riff 3 2 x(00:55)
Riff 2 1x (01:09)
Riff 4 1 x(01:21)
Riff 3 2x (01:22)
Riff 5 2x (01:37)
Riff 6 2x (01:50)
Riff 1 2x (02:03)
Riff 2 1x (02:18)
Riff 4 1x (02:22)
Riff 4 1x (02:29)
Riff 3 2 x(02:31)
Riff 5 2 x(02:45)
Riff 6 2 x(02:58)
Riff 1 2 x(03:12)
Riff 2 1x (03:26)
Riff 3 2x (03:39)
Riff 6 4 x(04:07)
Riff 7 2 x(04:34)
Riff 8 1x (04:44)
Добавлено: 06.04.2012
Другие материалы по этой песне:

Страница создана 06.04.2012
http://primanota.ru/moonspell/crystal-gazing-chords.htm
Привет, Гость.
Предлагаем пройти революционный курс по гитаре.
Подарок от PrimaNota.Ru, забирай!