PrimaNota.ru - самый крупный в мире бесплатный архив песенных текстов, аккордов, табулатур и нот


Mooi Wark - Soms Zit Het Met - таба, видео

Регистрация Запомнить меня
Войти через:  Facebook Google Twitter Vk Yandex Mail.ru

Mooi Wark - Soms Zit Het Met - таба, видео

Печатать
Просмотров: 118
Mooi – Wark - Soms zit het met soms zit het tegen

G#     466544
F#     244322
Eb     068880
C#     056660

Intro : 2x G# G F# F F# G#

   Intro:
e|------------------------------------------------------------------------|
B|--6b-6p4-6p4------------------------------------------------------------|
G|-------------6b----4-6b-6-4-6b----------1-3b-/3-1---1b~~----------------|
D|----------------/6-------------------/3-----------3---------------------|
A|------------------------------------------------------------------------|
E|------------------------------------------------------------------------|


G#                                           Eb
‘k Goa noar huus Pak mien jas ‘k Zuuk de sleutels
F                                            C#
In de bus, lach ik stoer nog wat, ‘k hol mij groot.
G#                                      Eb
Niks in huus ok gien vrouw die nam de benen
F                                        C#
Eigen schuld, want ik was er nooit, veur heur.

Refrein

G#                            Eb
Soms zit het met soms zit het tegen
F				   C#
Zo schient de zun dan kriej weer regen
G#                            Eb
Soms zit het met en dan weer tegen
F				 C#
Voak is het geven en soms muj nemen


G#                                   Eb
‘K loop wat rond deze nacht in de Reeg'n.
F                                 C#
En ik denk hoe zal't wezen nu met heur.

G#                                    Eb
Zal zij ook af en toe zich eens afvrog'n                                        F        
                                  C#
Ach ik denk zij heeft vast geen weet meer van mij


Refrein

G#                               Eb
Soms zit het met soms zit het tegen
F				   C#
Zo schient de zun dan kriej weer regen
G#                             Eb
Soms zit het met en dan weer tegen
F				   C#
Voak is het geven en soms muj nemen

Solo 2 x couplet.

e|------------------------------------------------------------------------|
B|--------------------------------------------------------11--------------|
G|--3b-3bp1----1/3b~~-------6-8b-8bp6-8p6-6b~~-----6-8/10----8bp6----6~~--|
D|----------h3--------6/8--------------------6/8------------------h8------|
A|------------------------------------------------------------------------|
E|------------------------------------------------------------------------|

e|------------------------------------------------------------------------|
B|------------------------------------------------------------------------|
G|------8----------10-----------12-----------15---—19b-19bp17------17~~---|
D|-8/10—-10--10/12----12--12/14----14--14/17----17------------h19---------|
A|------------------------------------------------------------------------|
E|------------------------------------------------------------------------|

e|--------------------------------------------------------------------------|
B|-----------------------------------11-------------------------------------|
G|-------6-8b-8bp6---6~~-------6-8/10----8b-8p6----6~~----------------------|
D|-6/8-------------8-----6/8--------------------h8--------------------------|
A|--------------------------------------------------------------------------|
E|--------------------------------------------------------------------------|

Intro : 1x G# G F# F F# G#

Refrein

G#                               Eb
Soms zit het met soms zit het tegen
F				   C#
Zo schient de zun dan kriej weer regen
G#                             Eb
Soms zit het met en dan weer tegen
F				   C#
Voak is het geven en soms muj nemen

Solo harmonica = 1 couplet

Refrein

G#                               Eb
Soms zit het met soms zit het tegen
F				   C#
Zo schient de zun dan kriej weer regen
G#                             Eb
Soms zit het met en dan weer tegen
F				   C#
Voak is het geven en soms muj nemen

s = slide
/ = long downward slide
b = bend (5b6 means bend the string at the 5th fret to make the note the
string would make at the 6th fret with no bend)
r = release bend
(H) = harmonic
h = hammer on
p = pull off
~ = let note ring while making the note "vibrate"
Добавлено: 08.07.2012
Другие материалы по этой песне:
  • Аккорды и текст

Страница создана 08.07.2012
http://primanota.ru/mooi-wark/soms-zit-het-met-chords.htm
Привет, Гость.
Предлагаем пройти революционный курс по гитаре.
Подарок от PrimaNota.Ru, забирай!