PrimaNota.ru - самый крупный в мире бесплатный архив песенных текстов, аккордов, табулатур и нот


Moody Blues - It May be a Fire - аккорды и текст, видео

Регистрация Запомнить меня
Войти через:  Facebook Google Twitter Vk Yandex Mail.ru

Moody Blues - It May be a Fire - аккорды и текст, видео

Печатать
Просмотров: 98
It May be a Fire
Moody Blues
-----------------------------------------------------------------------------
                                          Artist - Moody Blues 
                                         **********************
                                        Song - It May Be A Fire 
                                       *************************
                                 Album - The Other Side of Life (1986) 
                                ***************************************
                                         Tabbed By - Ayreon77
                                        **********************
-----------------------------------------------------------------------------
Tuning = Standard



INTRO - SOLO 1
******           s                                       b
e|-------10-12-12\14-|-15-14-12--------------------|----12-|-15-14-12----|--------------------------------|
B|-10-12-------------|----------15-~~~~~~~~~~~~~~~-|-10----|----------15-|---h---15-15--15---s------------|
G|-------------------|-----------------------------|-------|-------------|-14-16-----------16\14------s---|
D|-------------------|-----------------------------|-------|-------------|-----------------------14-14\16-|
A|-------------------|-----------------------------|-------|-------------|--------------------------------|
E|-------------------|-----------------------------|-------|-------------|--------------------------------|


e|------------------------------------------|
B|------------------------------------------|
G|------s--------s------------s-----------s-|
D|-17-14\16-17-16\14--16-17-16\14-12-~~~~~\-|
A|------------------------------------------|
E|------------------------------------------|


-----------------------------------
VERSE 1
********
D           Bm
It may be a fire
  G                        D
Tomorrow it could be nothing
                 Bb
It may reach out to the sky
         G                   A
Light up everything that you know


-----------------------------------
CHORUS
*******
Bm             A
Everywhere you go from now
         G               D
You will see better than before
F#m               Bm
People you've not known for years
          G                A
Will come knocking at your door
D             Bm
  It may be a fire
        G                      D
But you gotta get it into your heart


-----------------------------------
VERSE 2
********
D           Bm
It may be a warm wind
     G                        D
That tries to blow your heart away
            Bm
It may walk into your life
         G                   A
Tell you everything that you know


-----------------------------------
CHORUS
*******
Bm                   A
Looking down through all the years
       G                    D
Making plans that have gone passed
F#m                  Bm
Something you've not known for years
        G                  A
But you knew that it would last
D             Bm
  It may be a fire  
        G                      D
But you gotta get it into your heart


-----------------------------------
BRIDGE
*******
G                     A
  I'm turning all the answers
       G
Inside out
              A                 G
Looking for a love that reaches out
                    A
Of the fire into my heart


-----------------------------------
KEYBOARD SOLO - G A Em A G   D A
**************
-----------------------------------

VERSE 3
********
D           Bm
It may be a fire
  G                      D
Tomorrow it may be nothing
                Bm
It may reach up to the sky
         G                 A
Light up everything that I know


-----------------------------------
CHORUS
*******
Bm           A
Everywhere I go from now
       G               D
I will see better than before
F#m              Bm
People that I've known for years
          G              A
Will come knocking at my door


-----------------------------------
VERSE 4
********
D             Bm
  It may be a fire
        G                      D
But you gotta get it into your heart
            Bm
It may be a fire
        G             A
But you gotta get it


-----------------------------------
CHORUS
******
    A
You gotta get it
    G                      D
You gotta get it into your heart
            Bm
It may be a fire                      [repeat this with
        G                      D      [the solo and fade..........
But you gotta get it into your heart


-----------------------------------
03:19
SOLO 2  
*******      p   
e|-----b-|-15-14-------|--------------------------------|------------------------------------------|
B|----17-|-------17-15-|---h---15-15--15----------------|------------------------------------------|
G|-14----|-------------|-14-16-----------16-14------s---|------s--------s------------s-----------s-|
D|-------|-------------|-----------------------14-14\16-|-17-14\16-17-16\14--16-17-16\14-12-~~~~~\-|
A|-------|-------------|--------------------------------|------------------------------------------|
E|-------|-------------|--------------------------------|------------------------------------------|

                                                             p 
e|----------|--------------|---------------------------b-|-15-14-------------------------|
B|----------|--------------|--------------------15-17-17-|-------17-15-~~~~~~~~~~~~~~~~~-|
G|----------|--------------|-s---14-14----14-16----------|-------------------------------|
D|-s--7-7---|-s---12-12----|-\16-------16----------------|-------------------------------|
A|-\9-----9-|-\14-------14-|-----------------------------|-------------------------------|
E|----------|--------------|-----------------------------|-------------------------------|
            Trill.................................. 03:51      Trill........................  
     p        h  p  h  p  h  p  h  p  h               b  r             h  p  h  p  h  p  h  p  h
e|-17-14-17-14-17-14-17-14-17-14-17-14-17~~~~------|-17-----b--14-17-14-17-14-17-14-17-14-17-14-17-|
B|-------------------------------------------------|-------17--------------------------------------|
G|-------------------------------------------------|-----------------------------------------------|
D|-------------------------------------------------|-----------------------------------------------|
A|-------------------------------------------------|-----------------------------------------------|
E|-------------------------------------------------|-----------------------------------------------|

03:56                                                                               p
e|-----b------------------------------------|-------------------------------|--b--15-14-------|
B|-15-17-15-------15---p--p-----------------|---------------------b-----b---|-17--------17-15-|
G|----------17-14----17-16-14----14-------s-|--h--7-7-7---7---7-9-9~~~~-9~~-|-----------------|
D|----------------------------17----17-16-\-|-7-9-------9---9---------------|-----------------|
A|------------------------------------------|-------------------------------|-----------------|
E|------------------------------------------|-------------------------------|-----------------|


e|--------------------------------|------------------------------------------|---------------------------------|
B|---h---15-15--15---p------------|------------------------------------------|-----------------------b---------|
G|-14-16-----------16-14------s---|---h--------------------------------------|------------------h--7-9-/\/\/\/-|
D|-----------------------14-14\16-|-14-16----14---------------------Whammy---|--h-----------h--7-9-------------|
A|--------------------------------|-------17----14-17-12-14-10-12-9-/\/\/\/\-|-7-9-5-------7-9-----------------|
E|--------------------------------|------------------------------------------|-------7-5-7---------------------|

04:23
e|------------------------------|
B|-10----10----10----10---------|
G|----11----11----11----11-~~~~-|
D|------------------------------|
A|------------------------------|
E|------------------------------|

e|-----b----------------------------------------------------------------------------------------|
B|-15-17-15-------15---p--p---------------------------------------------------------------------|
G|----------17-14----17-16-14----14----14---h--p--s---------------------------------------------|
D|----------------------------17----17----15-17-15\14-15-14------h--p--s------------------------|
A|----------------------------------------------------------17-15-17-15\14-15-14------s---------|
E|-------------------------------------------------------------------------------17-15\14-~~~~~-|
                                                       Trill........................ 
04:34                                                    h  p  h  p  h  p  h  p  h  s 
e|--------------------------------10--------|--------|-14-17-14-17-14-17-14-17-14-17\19------b----------------|
B|-------------------------b----b----rb---b-|-b------|--------------------------------------17-15---p---15--b-|
G|----------h-p-----h--7-9-9~~~-9----9--7-9-|-9-/\/\-|-----------------------------------14-------17-14----17-|
D|----s--7-7-9-7---7-9----------------------|--------|--------------------------------------------------------|
A|-5-7\9---------9--------------------------|--------|--------------------------------------------------------|
E|------------------------------------------|--------|--------------------------------------------------------|



ENJOY.........
Добавлено: 26.08.2015
Другие материалы по этой песне:
  • Аккорды и текст

Страница создана 28.06.2012
http://primanota.ru/moody-blues/it-may-be-a-fire-chords.htm
Привет, Гость.
Предлагаем пройти революционный курс по гитаре.
Подарок от PrimaNota.Ru, забирай!