PrimaNota.ru - самый крупный в мире бесплатный архив песенных текстов, аккордов, табулатур и нот


Moodswing - My Girl - аккорды и текст, видео

Регистрация Запомнить меня
Войти через:  Facebook Google Twitter Vk Yandex Mail.ru

Moodswing - My Girl - аккорды и текст, видео

Печатать
Просмотров: 70
Уроки эстрадного вокала в Санкт-Петербурге
My Girl
Moodswing
Moodswing - My girl.

Music by Moodswing.

Lyrics by Jordy de Meij.

Moodswing is:
Jan Willem Keizer >>> Drums
Yuchien Yik >>> Bass
Bart Wijsman >>> Guitar/Vocals
Jordy de Meij >>> Guitar/Vocals

Tabbed by Kurt.

Standard tuning.

Bass intro.

G|------------------------------------------------0---0---0--0--0------|
D|-------------------------------------------------------------------------|
A|----------------------------0---0---0--0--0--------------------------|
E|-------7---7---7--7--7-----------------------------------------------|

Couplet 1  (clean)

|   B   |   A   |   G   |
Last week.....

Chorus (heavy distortion)

|   F#   |   Bb   |   C#   |   B7   |
She tought.....

Couplet 2 (light distortion)

|   C#   |   B   |   A   |
In Seattle....

Bridge (heavy distortion)

|   G   /   C#   |   A   /   B   |

Chords:

      B        A       G       C#       F#      Bb       B7

E |--7--|   |--5--|   |--3--|   |--4--|   |--2--|   |--6--|   |--7--|
B |--7--|   |--5--|   |--3--|   |--6--|   |--2--|   |--6--|   |--7--|
G |--8--|   |--6--|   |--4--|   |--6--|   |--3--|   |--7--|   |--8--|
D |--9--|   |--7--|   |--5--|   |--6--|   |--4--|   |--8--|   |--7--|
A |--9--|   |--7--|   |--5--|   |--4--|   |--4--|   |--8--|   |--9--|
E |--7--|   |--5--|   |--3--|   |--4--|   |--2--|   |--6--|   |--7--|


Please mail me for quetsions or corrections (boneshedder@hotmail.com)

     
Добавлено: 02.11.2013
Другие материалы по этой песне:
  • Аккорды и текст

Страница создана 02.11.2013
http://primanota.ru/moodswing/my-girl-chords.htm
Привет, Гость.
Предлагаем пройти революционный курс по гитаре.
Подарок от PrimaNota.Ru, забирай!