PrimaNota.ru - самый крупный в мире бесплатный архив песенных текстов, аккордов, табулатур и нот


Moodoid - De Folie Pure - таба, видео

Регистрация Запомнить меня
Войти через:  Facebook Google Twitter Vk Yandex Mail.ru

Moodoid - De Folie Pure - таба, видео

Печатать
Просмотров: 80
-------------------------------------------------------------------------------
                             De Folie Pure - Moodoid
-------------------------------------------------------------------------------
Tabbed by:  softshell
E-mail:  skeletontiger3@outlook.com


Referenced from:
https://www.youtube.com/watch?v=F6_CgAgpKic

Tuning:  Standard, capo on 3rd fret for everything below

        Intro for stripped down version

e|---------------------------------------------------------------------------|
B|-------------------3-------------------------------------------------------|
G|--------0-2------4---4--2--4--2--0-------------0--2---4--2--0--2-----------|
D|----2----------------------------------------2---------------------2-------|
A|---------------------------------------------------------------------------|
E|---------------------------------------------------------------------------|

e|---------------------------------------------------------------------------|
B|-------------------3----------------------------------3-0------------------|
G|--------0-2------4---4--2--4--2--0-------------0-2--------4-0--------------|
D|----2----------------------------------------2----------------0-2----------|
A|---------------------------------------------------------------------------|
E|---------------------------------------------------------------------------|

Regular intro CD/live version(capo still on 3rd fret)

e|---------------------------------------------------------------------------|
B|---------------------------------------------------------------------------|
G|---------------------------------------------------------------------------|
D|---------------------------------------------------------------------------|
A|---------------------------------------------------------------------------|
E|---0--3--5----7--10--7--5--7--5--3------0--3--5----5--7--5--3--5--0--------|

e|---0--3--5----7--10--7--5--7--5--3------0--3--5----5--7--5--3--5--0--------|
B|---------------------------------------------------------------------------|
G|---------------------------------------------------------------------------|
D|---------------------------------------------------------------------------|
A|---------------------------------------------------------------------------|
E|---------------------------------------------------------------------------|

For the verse he only uses Em. Single strum and sometimes double strum


Chorus  

       G         Em           A#                A             Em

e|-----3---------0------------3-----------------0--------------0-------------|
B|-----3---------0------------3-----------------2--------------0-------------|
G|-----0---------0------------4-----------------2--------------0-------------|
D|-----0---------2------------5-----------------2--------------2-------------|
A|-----2---------2------------5-----------------0--------------2-------------|
E|-----3---------0------------x-----------------x--------------0-------------|





************************************

| /   slide up
| \   slide down
| h   hammer-on
| p   pull-off
| ~   vibrato
| +   harmonic
| x   Mute note
| b   Bend
| pb  Pre-bend
| br  Bend release
| pbr Pre-bend release
| brb Bend release bend

************************************
Добавлено: 03.06.2016
Вам также может быть интересно:
Другие материалы по этой песне:
  • Аккорды и текст

Страница создана 02.06.2016
http://primanota.ru/moodoid/de-folie-pure-chords.htm
Привет, Гость.
Предлагаем пройти революционный курс по гитаре.
Подарок от PrimaNota.Ru, забирай!