PrimaNota.ru - самый крупный в мире бесплатный архив песенных текстов, аккордов, табулатур и нот


Monument Valley - Dear John Letters - таба, видео

Регистрация Запомнить меня
Войти через:  Facebook Google Twitter Vk Yandex Mail.ru

Monument Valley - Dear John Letters - таба, видео

Печатать
Просмотров: 78
-------------------------------------------------------------------------------
                             DEAR JOHN LETTERS - Monument Valley
-------------------------------------------------------------------------------
Tabbed by: Tron
E-mail: N/A

Tuning: Standard
Capo 6

Verse:
e|---------------------------------------------------------------------------|
B|---------------------------------------------------------------------------|
G|---------------------------------------------------------------------------|
D|----0-------0-------0-------0-------0-------0-------0-----0----------------|
A|--------2-------2-------2-------2-------2-------2-----2-------2------------|
E|--3---3---3---3---3---3---3---3---0---0---0---0---0-----0---0--------------|
    G                               Em

e|---------------------------------------------------------------------------|
B|---------------------------------------------------------------------------|
G|---------------------------------------------------------------------------|
D|----0---0---0---0-------------------0-------0-------0-------0--------------|
A|--2---2---2---2-----0---0---0---0-------2-------2-------2-------2----------|
E|------------------2---2---2---2---3---3---3---3---3---3---3---3------------|
   Cadd9           D/F#             G

Chorus
e|---------------------------------------------------------------------------|
B|---------------------------------------------------------------------------|
G|----0-------0-------0-------0----------------------------------------------|
D|--------2-------2-------2-------2---0-------0-------0-------0--------------|
A|--3---3---3---3---3---3---3---3---------2-------2-------2-------2----------|
E|----------------------------------3---3---3---3---3---3---3---3------------|
   Cadd9                            G

e|---------------------------------------------------------------------------|
B|---------------------------------------------------------------------------|
G|----0-------0-------0-------0----------------------------------------------|
D|--------2-------2-------2-------2---0-------0-------0-------0--------------|
A|--3---3---3---3---3---3---3---3---------2-------2-------2-------2----------|
E|----------------------------------3---3---3---3---3---3---3---3------------|
   Cadd9                            G

e|--2-----------------0------------------------------------------------------|
B|--3-----------------1------------------------------------------------------|
G|--2-----------------0------------------------------------------------------|
D|--------------------2---------------------0-------0-------0-------0--------|
A|--------------------3-------------------------2-------2-------2-------2----|
E|-(0)----------------3-------------------3---3---3---3---3---3---3---3------|
   D (let ring)       C (let ring)        G (back into verse)


Verse:
G                                     Em
We wrote our Dear John letters in the same pen
    Cadd9              D/F#            G
and before the ink was dry they were already stamped and sent
G                                Em
yours to West Berlin and mine to Kent
    Cadd9            D/F#            G
and they sat side by side until they went

G                                       Em
Your Sunday school script was packed in tight
Cadd9          D/F#           G
careful and considered in the faltering bathroom light
G                                         Em
mine in the spidery hand in which I still write
  Cadd9            D/F#      G
I thought of every line as a fuse ready to light

Chorus:
Cadd9                                G
They came back broken they came back bent
    Cadd9                                      G
and expected us to be what they thought they'd left
                            D (let ring)
and though we weren't quite whole
                   C (let ring)
turned out we were all
                          G (back to verse)
each other needed to grow old

Verse:
G                                      Em
The thick skin on my back grew hard to cut
    Cadd9               D/F#                 G
I'm sure the words were sharp but they never stuck
G                              Em
we sat back pretty easy and we watched the decades bend
Cadd9                 D/F#              G
home, bus stop, shop, bus stop and home again

Chorus:
Cadd9                                G
They came back broken they came back bent
    Cadd9                                      G
and expected us to be what they thought they'd left
                            D (let ring)
and though we weren't quite whole
                   C (let ring)
turned out we were all
                          G (back to verse)
each other needed to grow old

Verse:
G                                  Em
Now my stiff limbs jerk across the station concourse
Cadd9          D/F#          G
like a wind up toy forced to walk
G                                          Em
and you've been dead six years now but sometimes it feels like more
Cadd9       D/F#   G
and I am old, I am old
G                                       Em
you've been dead six years now but sometimes it feels like more
Cadd9       D/F#   G
and I am old, I am old
Добавлено: 17.12.2015
Вам также может быть интересно:
Другие материалы по этой песне:
  • Аккорды и текст

Страница создана 17.12.2015
http://primanota.ru/monument-valley/dear-john-letters-chords.htm
Привет, Гость.
Предлагаем пройти революционный курс по гитаре.
Подарок от PrimaNota.Ru, забирай!