PrimaNota.ru - самый крупный в мире бесплатный архив песенных текстов, аккордов, табулатур и нот


Monty Are I - Anchor And Hope - текст песни, таба, видео

Регистрация Запомнить меня
Войти через:  Facebook Google Twitter Vk Yandex Mail.ru

Monty Are I - Anchor And Hope - текст песни, таба, видео

Печатать
Просмотров: 178
Anchor and Hope
Monty Are I
Drop D Tuning
Key:
TP = Tremolo Pick
PM = Palm Mute 

  Intro (After piano)                             2nd Time Only
  Gtr. 1                                                     TP
E|-11-------11-------11-------11-------12-12-12------------|------|
B|----9-12-----9-12-----9-12-----9-12----------11-11-1112~-|-12//-|
G|---------------------------------------------------------|------|
D|---------------------------------------------------------|------|
A|---------------------------------------------------------|------|
E|---------------------------------------------------------|------| x2

  Gtr. 2 (Listen to song for rhythm)
E|-----------------------------------------|-----------------------------------------|
B|-----------------------------------------|-----------------------------------------|
G|-----------------------------------------|-----------------------------------------|
D|-6-6-6--6-6-6--6-6-6--6-6-6--2-2-2-2-2-2-|-4-4-4—-4-4-4--4-4-4--4-4-4--6-6-6-6-6-6-|
A|-6-6-6--6-6-6--6-6-6--6-6-6--2-2-2-2-2-2-|-4-4-4—-4-4-4--4-4-4--4-4-4--6-6-6-6-6-6-|
E|-6-6-6--6-6-6--6-6-6--6-6-6--2-2-2-2-2-2-|-4-4-4--4-4-4--4-4-4--4-4-4--5-5-5-5-5-5-| x2

  Verse 
  Gtr. 1
E|------------------------------------------------|
B|------------------------------------------------|
G|------------------------------------------------|
D|-6-6-6-6-6-6--6-6-6-6-6--2-2-2-2-2-2--2-2-2-2-2-|
A|-6-6-6-6-6-6--6-6-6-6-6--2-2-2-2-2-2--2-2-2-2-2-|
E|-6-6-6-6-6-6--6-6-6-6-6--2-2-2-2-2-2--2-2-2-2-2—|
                                                               2nd Time Only
                                                                         TP
E|------------------------------------------------------------|-------------|
B|------------------------------------------------------------|-------------|
G|------------------------------------------------------------|-------------|
D|-4-4-4-4-4-4--4-4-4-4-4--6-6-6-6-6-6--6-6-6-6-6-666--6-6-6--|-666--6-6-6--|
A|-4-4-4-4-4-4--4-4-4-4-4--6-6-6-6-6-6--6-6-6-6-6-666--6-6-6--|-666--6-6-6--|
E|-4-4-4-4-4-4--4-4-4-4-4--5-5-5-5-5-5--5-5-5-5-5-555--5-5-6--|-555--5-5-6--|
                                                                PM.  . .
  Chorus
  Gtrs. 1 & 2
  “I swear you're running...”                           “It's true...”
E|-----------------------------------------------------|-------------------|
B|-----------------------------------------------------|-------------------|
G|-----------------------------------------------------|-------------------|
D|-6-6-666-6-6-6-66--9-9-999-9-9-9-99-1-1-111-1-1-1-11-|-44444444-66666666-|
A|-6-6-666-6-6-6-66--9-9-999-9-9-9-99-1-1-111-1-1-1-11-|-44444444-66666666-|
E|-6-6-666-6-6-6-66--9-9-999-9-9-9-99-1-1-111-1-1-1-11-|-44444444-66666666-|
                                                         PM...... ........ 
Verse Intro
  Gtr. 1                                          
E|-11-------11-------11-------11-------12-12-12-------------|
B|----9-12-----9-12-----9-12-----9-12----------11-11-11-12~-|
G|----------------------------------------------------------|
D|----------------------------------------------------------|
A|----------------------------------------------------------|
E|----------------------------------------------------------| x2

  Gtr. 2 (Listen to song for rhythm)
E|--------------------------------------------|-----------------------------------------|
B|--------------------------------------------|-----------------------------------------|
G|--------------------------------------------|-----------------------------------------|
D|-6-6-6---6-6-6---6-6-6---6-6-6--2-2-2-2-2-2-|-4-4-4—-4-4-4--4-4-4--4-4-4--6-6-6-6-6-6-|
A|-6-6-6---6-6-6---6-6-6---6-6-6--2-2-2-2-2-2-|-4-4-4—-4-4-4--4-4-4--4-4-4--6-6-6-6-6-6-|
E|-6-6-6---6-6-6---6-6-6---6-6-6--2-2-2-2-2-2-|-4-4-4--4-4-4--4-4-4--4-4-4--5-5-5-5-5-5-|
 
  Verse 2
  Gtr. 1
  “Pack your bags and leave”
E|----------------------------------------|------------------------|
B|----------------------------------------|------------------------|
G|----------------------------------------|------------------------|
D|----------------------------------------|-2-2-2-2-2-2--2-2-2-2-2—|
A|----------------------------------------|-2-2-2-2-2-2--2-2-2-2-2—|
E|---------------------------6-8-9-11-9-8-|-2-2-2-2-2-2--2-2-2-2-2—|
                           PM. . .  . . .
                                                               
E|------------------------------------------------------------|
B|------------------------------------------------------------|
G|------------------------------------------------------------|
D|-4-4-4-4-4-4--4-4-4-4-4--6-6-6-6-6-6--6-6-6-6-6-666--6-6-6--|
A|-4-4-4-4-4-4--4-4-4-4-4--6-6-6-6-6-6--6-6-6-6-6-666--6-6-6--|
E|-4-4-4-4-4-4--4-4-4-4-4--5-5-5-5-5-5--5-5-5-5-5-555--5-5-6--|

E|------------------------------------------------|
B|------------------------------------------------|
G|------------------------------------------------|
D|-6-6-6-6-6-6--6-6-6-6-6--2-2-2-2-2-2--2-2-2-2-2-|
A|-6-6-6-6-6-6--6-6-6-6-6--2-2-2-2-2-2--2-2-2-2-2-|
E|-6-6-6-6-6-6--6-6-6-6-6--2-2-2-2-2-2--2-2-2-2-2—|

E|---------------------------------------|
B|---------------------------------------|
G|---------------------------------------|
D|-4-4-4-4-4-4--4-4-4-4-4--666--6-6-6~~--|
A|-4-4-4-4-4-4--4-4-4-4-4--666--6-6-6~~--|
E|-4-4-4-4-4-4--4-4-4-4-4--555--5-5-6~~--|
                           PM.  . .

  Chorus
  Gtrs. 1 & 2
  “I swear you're running...”                           “It's true...”
E|-----------------------------------------------------|-------------------|
B|-----------------------------------------------------|-------------------|
G|-----------------------------------------------------|-------------------|
D|-6-6-666-6-6-6-66--9-9-999-9-9-9-99-1-1-111-1-1-1-11-|-44444444-66666666-|
A|-6-6-666-6-6-6-66--9-9-999-9-9-9-99-1-1-111-1-1-1-11-|-44444444-66666666-|
E|-6-6-666-6-6-6-66--9-9-999-9-9-9-99-1-1-111-1-1-1-11-|-44444444-66666666-| x2
                                                         

Piano Interlude 

Bridge (After piano)                             
  Gtr. 1                                          2nd time 
E|-11-------11-------11-------11-------12-12-12-------------|-----------------|
B|----9-12-----9-12-----9-12-----9-12----------11-11-11-12~-|-888-11-11-11-9--|
G|----------------------------------------------------------|-----------------|
D|----------------------------------------------------------|-----------------|
A|----------------------------------------------------------|-----------------|
E|----------------------------------------------------------|-----------------| x2

  Gtr. 2 
E|-----------------------------------------|-----------------------------------------|
B|-----------------------------------------|-----------------------------------------|
G|-----------------------------------------|-----------------------------------------|
D|-6-6-6--6-6-6--6-6-6--6-6-6--2-2-2-2-2-2-|-4-4-4—-4-4-4--4-4-4--4-4-4--6-6-6-6-6-6-|
A|-6-6-6--6-6-6--6-6-6--6-6-6--2-2-2-2-2-2-|-4-4-4—-4-4-4--4-4-4--4-4-4--6-6-6-6-6-6-|
E|-6-6-6--6-6-6--6-6-6--6-6-6--2-2-2-2-2-2-|-4-4-4--4-4-4--4-4-4--4-4-4--5-5-5-5-5-5-| x2

Bridge no guitar until...
  “OOOOH I swear...”
                   “It's true...”
E|------------------------------------|
B|------------------------------------|
G|------------------------------------|
D|------1~~---------44444444-66666666-|
A|------1~~---------44444444-66666666-|
E|------1~~---------44444444-66666666-|
                    PM...... ........

Chorus
E|-----------------------------------------------------|
B|-----------------------------------------------------|
G|-----------------------------------------------------|
D|-6-6-666-6-6-6-66--9-9-999-9-9-9-99-1-1-111-1-1-1-11-|
A|-6-6-666-6-6-6-66--9-9-999-9-9-9-99-1-1-111-1-1-1-11-|
E|-6-6-666-6-6-6-66--9-9-999-9-9-9-99-1-1-111-1-1-1-11-|

  “Anchor and hope...”
E|-----------------------------------|
B|-----------------------------------|
G|-----------------------------------|
D|-11-111-44-444-666-4-4-4-4-666-666-|
A|-11-111-44-444-666-4-4-4-4-666-666-|
E|-11-111-44-444-556-4-4-4-4-555-666-|
   Ones not elevens 

  Outro
  Gtr. 1                                          2nd time 
E|-11-------11-------11-------11-------12-12-12-------------|--------------|
B|----9-12-----9-12-----9-12-----9-12----------11-11-11-12~-|-888-11-11-11-|
G|----------------------------------------------------------|--------------|
D|----------------------------------------------------------|--------------|
A|----------------------------------------------------------|--------------|
E|----------------------------------------------------------|--------------| x2

  Gtr. 2 
E|-----------------------------------------|-----------------------------------------|
B|-----------------------------------------|-----------------------------------------|
G|-----------------------------------------|-----------------------------------------|
D|-6-6-6--6-6-6--6-6-6--6-6-6--2-2-2-2-2-2-|-4-4-4—-4-4-4--4-4-4--4-4-4--6-6-6-6-6-6-|
A|-6-6-6--6-6-6--6-6-6--6-6-6--2-2-2-2-2-2-|-4-4-4—-4-4-4--4-4-4--4-4-4--6-6-6-6-6-6-|
E|-6-6-6--6-6-6--6-6-6--6-6-6--2-2-2-2-2-2-|-4-4-4--4-4-4--4-4-4--4-4-4--5-5-5-5-5-5-| x2

  Gtr. 2 
  2nd time
E|---------|
B|---------|
G|---------|
D|-666-666-|
A|-666-666-|
E|-555-666-| 
Добавлено: 01.06.2012
Другие материалы по этой песне:
  • Аккорды и текст

Страница создана 01.06.2012
http://primanota.ru/monty-are-i/anchor-and-hope-chords.htm
Привет, Гость.
Предлагаем пройти революционный курс по гитаре.
Подарок от PrimaNota.Ru, забирай!