PrimaNota.ru - самый крупный в мире бесплатный архив песенных текстов, аккордов, табулатур и нот


Montrose - Spaceage Sacrifice - таба, видео

Регистрация Запомнить меня
Войти через:  Facebook Google Twitter Vk Yandex Mail.ru

Montrose - Spaceage Sacrifice - таба, видео

Печатать
Просмотров: 117
Tab: Guitar
Tuning: Standard

Intro

e ---------------------------------------------------I
B --7-----------5--2-----------7--5--2------------5--I
G --7-----------5--2---4--6----7--5--2---4--6--6--5--I
D --7-----------5--2---5--7----7--5--2---5--7--7--5--I
A --0--0--0--0--0--0---5--7----0--0--0---5--7--7--3--I
E ---------------------3--5--------------3--5--5-----I
    D           C  A   G  A    D  C  A   G  A  A  C

Verse

e -----------------------I
B --7-----------5--2--2--I
G --7-----------5--2--2--I
D --7-----------5--2--2--I
A --0--0--0--0--0--0--0--I
E -----------------------I
    D           C  A  A

Verse end

e ------------------------------------7-----------------I
B --7-----------5---9-----------------7-----------------I
G --7-----------5---9-----------------9-----------------I
D --7-----------5---9--2--0-----------9--2--0-----------I
A --0--0--0--0--0---7--------2--0-----7--------2--0-----I
E ------------------0--------------3--0--------------3--I
    D           C   E                 E9

Chorus

e --1--1--------------3--3--------------I
B --1--1--------------3--3--------------I
G --2--2--------------4--4--------------I
D --3--3--------------5--5--------------I
A --3--3--------------5--5--------------I
E --1--1--1--0--1--2--3--3--3--2--3--4--I
    F  F              G  G

Ending

e -----------------I
B --7--5--2-----2--I
G --7--5--2-----2--I
D --7--5--2-----2--I
A --5--3--0-----0--I
E -----------3-----I
    D  C  A     A

Добавлено: 18.05.2012
Другие материалы по этой песне:
  • Аккорды и текст

Страница создана 18.05.2012
http://primanota.ru/montrose/spaceage-sacrifice-chords.htm
Привет, Гость.
Предлагаем пройти революционный курс по гитаре.
Подарок от PrimaNota.Ru, забирай!