PrimaNota.ru - самый крупный в мире бесплатный архив песенных текстов, аккордов, табулатур и нот


Montrose - Good Rockin Tonight - таба, бас-таба, видео

Регистрация Запомнить меня
Войти через:  Facebook Google Twitter Vk Yandex Mail.ru

Montrose - Good Rockin Tonight - таба, бас-таба, видео

Печатать
Просмотров: 116
Авторы музыки: Roy Brown
Авторы текста: Roy Brown
GOOD ROCKIN' TONIGHT

As recorded by Montrose
(From the 1973 Album MONTROSE)

Words and Music by Roy Brown
Arranged by Montrose

Transcribed by Slowhand


Gtr I (E A D G B E) - 'Ronnie Montrose - Electric Guitar 1'
Gtr II (E A D G B E) - 'Ronnie Montrose - Electric Guitar 2'


 Intro
  Q=208(8=s8)
  N.C.
 4/4
  Gtr I
  H    Q  E E   Q  Q  Q  Q    Q  Q  Q  Q    Q  Q  Q  Q    Q  Q  Q  Q
|-------------|-------------|-------------|-------------|-------------|
|-------------|-------------|-------------|-------------|-------------|
|-----------x-|-------------|-------------|-------------|-------------|
|-----------x-|-------------|-------------|-------------|-------------|
|-----------x-|-------------|-------------|-------------|-------------|
|-------------|-7--7--7--7--|-7--7--7--7--|-7--7--7--7--|-7--7--7--7--|


  A/B                         B                                 A/B
  W             +H..          E   +W              +H..          E
|-------------|-----------------|---------------|------------------|
|-5-----------|-(5)-----------7-|-(7)-----------|-(7)-----------5--|
|-6-----------|-(6)-----------8-|-(8)-----------|-(8)-----------6--|
|-7-----------|-(7)-----------9-|-(9)-----------|-(9)-----------7--|
|-------------|-----------------|---------------|------------------|
|-7--7--7--7--|--7----7--7--7---|--7---7--7--7--|--7----7--7--7----|
  Q  Q  Q  Q     Q    Q  Q  Q      Q   Q  Q  Q     Q    Q  Q  Q


                E/B               B
  +H..          E   +H..          E   +W              +W
|-----------------|-----------------|---------------|----------------|
|-(5)-----------5-|-(5)-----------7-|-(7)-----------|-(7)------------|
|-(6)-----------4-|-(4)-----------8-|-(8)-----------|-(8)------------|
|-(7)-----------6-|-(6)-----------9-|-(9)-----------|-(9)------------|
|-----------------|-----------------|---------------|----------------|
|--7----7--7--7---|--7----7--7--7---|--7---7--7--7--|--7---7--7--7---|
   Q    Q  Q  Q      Q    Q  Q  Q      Q   Q  Q  Q     Q   Q  Q  Q


  A/B                         B                                    A/B
  W             +H..           E    +W               +H..          E
|-------------|------------------|----------------|-------------------|
|-5-----------|-(5)------------7-|--(7)-----------|--(7)-----------5--|
|-6-----------|-(6)------------8-|--(8)-----------|--(8)-----------6--|
|-7-----------|-(7)------------9-|--(9)-----------|--(9)-----------7--|
|-------------|------------------|----------------|-------------------|
|-7--7--7--7--|--7----7--7--7----|---7---7--7--7--|---7----7--7--7----|
| Q  Q  Q  Q     Q    Q  Q  Q        Q   Q  Q  Q      Q    Q  Q  Q
|
| Gtr II
| W             +H..           E    +W               +H..          E
|-------------|---------------11-|-(11)-----------|-(11)-----------9--|
|-------------|------------------|----------------|-------------------|
|-9-----------|-(9)-----------11-|-(11)-----------|-(11)-----------9--|
|-------------|------------------|----------------|-------------------|
|-------------|------------------|----------------|-------------------|
|-------------|------------------|----------------|-------------------|


                E/B                 B
  +H..           E    +H..           E    +W               +W
|------------------|-------------------|----------------|---------------------||
|-(5)------------5-|--(5)------------7-|--(7)-----------|--(7)----------------||
|-(6)------------4-|--(4)------------8-|--(8)-----------|--(8)----------------||
|-(7)------------6-|--(6)------------9-|--(9)-----------|--(9)----------------||
|------------------|-------------------|----------------|---------------------||
|--7----7--7--7----|---7----7--7--7----|---7---7--7--7--|---7---7----7----7---||
|  Q    Q  Q  Q        Q    Q  Q  Q        Q   Q  Q  Q      Q   Q    Q    Q
|
| +H..           E    +H..           E    +W               +H       +H
|-(9)-----------12-|-(12)-----------11-|-(11)-----------|-(11)-----(11)\------||
|------------------|-------------------|----------------|---------------------||
|-(9)-----------13-|-(13)-----------11-|-(11)-----------|-(11)-----(11)\------||
|------------------|-------------------|----------------|---------------------||
|------------------|-------------------|----------------|---------------------||
|------------------|-------------------|----------------|---------------------||


 1st Verse
  E/B
  E E E E E E E E   E E E E E E E E
|-----------------|-----------------|
|-----9-------9---|-----9-------9---|
|-----9-------9---|-----9-------9---|
|-----9-------9---|-----9-------9---|
|-----------------|-----------------|
|-7-7-7-7-7-7-7-7-|-7-7-7-7-7-7-7-7-|
|
| W                 W
|-----------------|-----------------|
|-----------------|-----------------|
|-----------------|-----------------|
|-----------------|-----------------|
|-----------------|-----------------|
|-----------------|-----------------|


                              D/B
  E E E E E E E E    E  E  E  Q.               E E
|-----------------|--------------------------------|
|-----9-------9---|-----9-----7--------------------|
|-----9-------9---|-----9-----7tr6-----------------|
|-----9-------9---|-----9-----7--------------------|
|-----------------|--------------------------------|
|-7-7-7-7-7-7-7-7-|--7--7--7--7----------------7-7-|
|
|                                   |---5----|
| H       E E E E   +Q    +E  E    +S  S S S S Q
|-----------------|--------------------------------|
|-----------------|--------------------------------|
|-----------x-----|-----------7----(7)-8-7-8-7-----|
|-------------7-9-|-(9)---(9)----------------------|
|-----------------|--------------------------------|
|-----------------|--------------------------------|


  E/B                                                           D/B
  E E E E E E E E   E E E E E E E E   E E E E E E E E    E  E E Q.     E E
|-----------------|-----------------|-----------------|---------------------|
|-----9-------9---|-----9-------9---|-----9-------9---|-----9---7-----------|
|-----9-------9---|-----9-------9---|-----9-------9---|-----9---7tr6--------|
|-----9-------9---|-----9-------9---|-----9-------9---|-----9---7-----------|
|-----------------|-----------------|-----------------|---------------------|
|-7-7-7-7-7-7-7-7-|-7-7-7-7-7-7-7-7-|-7-7-7-7-7-7-7-7-|--7--7-7-7------7-7--|
|
|                                                        ~~~
| W                 W                 H       E E E E   +W
|-----------------|-----------------|-----------------|---------------------|
|-----------------|-----------------|-----------------|---------------------|
|-----------------|-----------------|-----------------|---------------------|
|-----------------|-----------------|-----------------|---------------------|
|-----------------|-----------------|-----------x-7-5-|-(5)-----------------|
|-----------------|-----------------|-----------------|---------------------|


  E/B                     D/B                E/B
  E E E E E E E E   E E E Q.        E    E    E  E E E E E E E
|-----------------|------------------------|-------------------|
|-----9-------9---|---9---7----------------|-------9-------9---|
|-----9-------9---|---9---7tr6-------------|-------9-------9---|
|-----9-------9---|---9---7----------------|-------9-------9---|
|-----------------|------------------------|-------------------|
|-7-7-7-7-7-7-7-7-|-7-7-7-7---------7----7-|--7--7-7-7-7-7-7-7-|
|
|                                   ~~~~~~~~~~~~~
| W                 H          E E +Q        +H        H
|-----------------|------------------------|-------------------|
|-----------------|------------------------|-------------------|
|-----------------|------------------------|-------------------|
|-----------------|------------------------|-------------------|
|-----------------|------------------------|-------------------|
|-----------------|--------------3-(3)b5---|-(3)---------------|


        D/B                  N.C.
  E E E E    +H              Q   Q   Q   Q     Q    Q   Q   Q
|--------------------------|-----------------|-----------------||
|---9---7----(7)-----------|-----------------|-----------------||
|---9---7tr6-(7tr6)--------|-----------------|-----------------||
|---9---7----(7)-----------|-2---------------|-----------------||
|--------------------------|---------2-------|----------4---6--||
|-7-7-7-7----(7)-----------|-----4-------4---|-2----6----------||
|
|     ~~~~~~~~~~~~~~
| Q   Q      +Q      +Q      Q   E E E E E E   E E  E E E E Q
|--------------------------|-----------------|-----------------||
|--------------------------|-----------------|-----------------||
|--------------------------|---------4-4-6-6-|----------6-6-8--||
|-----9------(9)-----(9)\--|-2--/6-6---------|-4-4-/8-8--------||
|--------------------------|-----------------|-----------------||
|--------------------------|-----------------|-----------------||


 Interlude
  A/B                         B                                   A/B
  W             +H..          E   +W                +H..          E
|-------------|-----------------|-----------------|------------------|
|-5-----------|-(5)-----------7-|-(7)-------------|-(7)-----------5--|
|-6-----------|-(6)-----------8-|-(8)-------------|-(8)-----------6--|
|-7-----------|-(7)-----------9-|-(9)-------------|-(9)-----------7--|
|-------------|-----------------|-----------------|------------------|
|-7--7--7--7--|--7----7--7--7---|--7---7---7---7--|--7----7--7--7----|
| Q  Q  Q  Q     Q    Q  Q  Q      Q   Q   Q   Q     Q    Q  Q  Q
|
| ~~~~~~~~~~~~~~~~~~~
| W             +H.         E E   +H      +H        +H..          E
|-------------|-----------------|-----------------|------------------|
|-------------|-----------------|-----------------|------------------|
|-------------|---------------8-|-(8)-----(8)-----|-(8)-----------9--|
|-9-----------|-(9)-------------|-----------------|------------------|
|-------------|-----------------|-----------------|------------------|
|-------------|-----------------|-----------------|------------------|


                    E/B                        B
  +H..                E    +H..                 E
|-----------------------|-------------------------|
|-(5)-----------------5-|--(5)------------------7-|
|-(6)-----------------4-|--(4)------------------8-|
|-(7)-----------------6-|--(6)------------------9-|
|-----------------------|-------------------------|
|--7-----7----7---7-----|---7------7-----7---7----|
|  Q     Q    Q   Q         Q      Q     Q   Q
|
|        ~~~~~~~~
| +Q    +Q   +Q.      E    +Q     +Q    +Q.     E
|-----------------------|-------------------------|
|-----------------------|-------------------------|
|-(9)---(9)--(9)----/13-|-(13)---(13)--(13)----11-|
|-----------------------|-------------------------|
|-----------------------|-------------------------|
|-----------------------|-------------------------|


   +W                  +W
|-------------------|---------------------||
|--(7)--------------|--(7)----------------||
|--(8)--------------|--(8)----------------||
|--(9)--------------|--(9)----------------||
|-------------------|---------------------||
|---7-----7---7--7--|---7---7----7----7---||
|   Q     Q   Q  Q      Q   Q    Q    Q
|
|  +Q    +H.           +H       +E  E Q
|-------------------|---------------------||
|-------------------|---------------------||
|-(11)--(11)--------|-(11)-----(11)-------||
|-------------------|---------------7-7---||
|-------------------|---------------7-7---||
|-------------------|---------------7-7---||


 2nd Verse
  E/B                     D/B
  E E E E E E E E   E E E E    +H
|-----------------|-------------------------------|
|-----9-------9---|---9---7----(7)----------------|
|-----9-------9---|---9---7tr6-(7tr6)-------------|
|-----9-------9---|---9---7----(7)----------------|
|-----------------|-------------------------------|
|-7-7-7-7-7-7-7-7-|-7-7-7-7----(7)----------------|
|
| W                 H           E     E     +E  E
|-----------------|-------------------------------|
|-----------------|-------------------------------|
|-----------------|-------------------9pb11r(9)-7-|
|-----------------|-------------------------------|
|-----------------|-------------------------------|
|-----------------|-------------------------------|


  E/B                           D/B
   E      E E E E E E E   E E E E    +H
|-----------------------|----------------------|
|-----------9-------9---|---9---7----(7)-------|
|-----------9-------9---|---9---7tr6-(7tr6)----|
|-----------9-------9---|---9---7----(7)-------|
|-----------------------|----------------------|
|--7------7-7-7-7-7-7-7-|-7-7-7-7----(7)-------|
|
| +Q        Q   H         W
|-----------------------|----------------------|
|-----------------------|----------------------|
|-(7)b7.5---------------|----------------------|
|-----------------------|----------------------|
|-----------------------|----------------------|
|-----------------------|----------------------|


  E/B                     D/B              B7
  E E E E E E E E   E E E E    +H          Q  Q  H
|-----------------|----------------------|------------|
|-----9-------9---|---9---7----(7)-------|-7----------|
|-----9-------9---|---9---7tr6-(7tr6)----|-8----------|
|-----9-------9---|---9---7----(7)-------|-7----------|
|-----------------|----------------------|------------|
|-7-7-7-7-7-7-7-7-|-7-7-7-7----(7)-------|-7----------|
|
| W                 W                      Q  Q  H
|-----------------|----------------------|------------|
|-----------------|----------------------|------------|
|-----------------|----------------------|------------|
|-----------------|----------------------|-9----------|
|-----------------|----------------------|------------|
|-----------------|----------------------|------------|


  N.C.
  H    Q   Q     Q   Q   Q   Q     Q    Q   Q   Q
|--------------|-----------------|-----------------||
|--------------|-----------------|-----------------||
|--------------|-----------------|-----------------||
|--------------|-2---------------|-----------------||
|---------14\--|---------2-------|----------4---6--||
|--------------|-----4-------4---|-2----6----------||
|
| W              Q   E E E E E E   E E  E E E E Q
|--------------|-----------------|-----------------||
|--------------|-----------------|-----------------||
|--------------|---------4-4-6-6-|----------6-6-8--||
|--------------|-2--/6-6---------|-4-4-/8-8--------||
|--------------|-----------------|-----------------||
|--------------|-----------------|-----------------||


 Interlude
  A/B                         B                                   A/B
  W             +H..          E   +W                +H..          E
|-------------|-----------------|-----------------|------------------|
|-5-----------|-(5)-----------7-|-(7)-------------|-(7)-----------5--|
|-6-----------|-(6)-----------8-|-(8)-------------|-(8)-----------6--|
|-7-----------|-(7)-----------9-|-(9)-------------|-(9)-----------7--|
|-------------|-----------------|-----------------|------------------|
|-7--7--7--7--|--7----7--7--7---|--7---7---7---7--|--7----7--7--7----|
| Q  Q  Q  Q     Q    Q  Q  Q      Q   Q   Q   Q     Q    Q  Q  Q
|
| ~~~~~~~~~~~~~~~~~~~
| W             +H.         E E   +H      +H        +H..          E
|-------------|-----------------|-----------------|------------------|
|-------------|-----------------|-----------------|------------------|
|-------------|---------------8-|-(8)-----(8)-----|-(8)-----------9--|
|-9-----------|-(9)-------------|-----------------|------------------|
|-------------|-----------------|-----------------|------------------|
|-------------|-----------------|-----------------|------------------|


                E/B                B
  +H..           E   +H..          E
|------------------|--------------------|
|-(5)------------5-|-(5)-----------7----|
|-(6)------------4-|-(4)-----------8----|
|-(7)------------6-|-(6)-----------9----|
|------------------|--------------------|
|--7----7--7--7----|--7----7--7--7------|
|  Q    Q  Q  Q       Q    Q  Q  Q
|
| +H..           E   +H..          E
|------------------|--------------------|
|---------------/7-|-(7)-----------9b10-|
|-(9)--------------|--------------------|
|------------------|--------------------|
|------------------|--------------------|
|------------------|--------------------|


  +W              +W
|---------------|-----------------------||
|-(7)-----------|-(7)-------------------||
|-(8)-----------|-(8)-------------------||
|-(9)-----------|-(9)-------------------||
|---------------|-----------------------||
|--7---7--7--7--|--7----7-------7---7---||
|  Q   Q  Q  Q     Q    Q       Q   Q
|
|  ~~~
| +W               Q    Q      +Q   Q
|---------------|-------------------7---||
|-(9)-----------|------10b12--(10)------||
|---------------|-----------------------||
|---------------|-11--------------------||
|---------------|-----------------------||
|---------------|-----------------------||


 Guitar Solo
  B5
   E    E  Q   E    E  Q            E   E  Q      Q          Q
|-------------------------------|----------------------------------|
|-------------------------------|----------------------------------|
|-------------------------------|----------------------------------|
|-------------------------------|----------------------------------|
|--9----9-11---9----9-11--------|---9---9-11-----12---------11-----|
|--7----7--7---7----7--7--------|---7---7--7------7----------7-----|
|
|  Q       Q   Q       E  E        +E   E  Q      E  E      +E   E
|----------7-----------7--------|-------7---------7--------------7-|
|-10b12-------10b12------10b12==|=(10)r---10b12-----10b12==(10)r---|
|-------------------------------|----------------------------------|
|-------------------------------|----------------------------------|
|-------------------------------|----------------------------------|
|-------------------------------|----------------------------------|


   E    E  Q          E   E  Q      E   E    Q    E  E  Q
|--------------------------------|---------------------------|
|--------------------------------|---------------------------|
|--------------------------------|---------------------------|
|--------------------------------|---------------------------|
|--9----9-11----------9---9-11---|-12---9---11---12--9-11----|
|--7----7--7----------7---7--7---|--7---7----7----7--7--7----|
|
|                                   |--3--|
|  Q       E  E      +E   E  E E    E E   E  E E  E  E  E E
|----------7--------------7------|---------------------------|
|-10b12------10b12==(10)r---10-7-|---------------------------|
|--------------------------------|-10p9p==7--9-7--9-10--9-7--|
|--------------------------------|---------------------------|
|--------------------------------|---------------------------|
|--------------------------------|---------------------------|


  E   E    Q   E E  Q          E E  Q        Q    Q
|----------------------------|------------------------|
|----------------------------|------------------------|
|----------------------------|------------------------|
|----------------------------|------------------------|
|-9---9---11---9-9-11--------|-9-9-11-------12---11---|
|-7---7----7---7-7--7--------|-7-7--7--------7----7---|
|
| |--3--|                           |-3-|
| E E   E  E E E E  E    +E    E E  S S S E  E E  E E
|----------------------------|------------------------|
|----------------------------|------------------------|
|-9p7------9-7------9b11-(9)-|-9-7--7h9p7----9-7----7-|
|-------9------9-7-----------|------------9-------9---|
|----------------------------|------------------------|
|----------------------------|------------------------|


  E    E  Q         E  E  Q            E  E  Q    E   E  Q
|----------------------------------|--------------------------|
|----------------------------------|--------------------------|
|----------------------------------|--------------------------|
|----------------------------------|--------------------------|
|-9----9-11---------9--9-11--------|--12--9-11---12---9-11----|
|-7----7--7---------7--7--7--------|---7--7--7----7---7--7----|
|
| E    E  E  E     +E  Q     E        +H         +E   E  E E
|---------7------------7-----------|------------------7----7--|
|------7----10b12-(10)------10b12==|=(10)-------(10)r---10----|
|-9b11-----------------------------|--------------------------|
|----------------------------------|--------------------------|
|----------------------------------|--------------------------|
|----------------------------------|--------------------------|


   E   E    Q      Q      Q        E   E    Q      Q      Q
|-------------------------------|-------------------------------|
|-------------------------------|-------------------------------|
|-------------------------------|-------------------------------|
|-------------------------------|-------------------------------|
|-12---9---11------9-----11-----|-12---9---11------9-----11-----|
|--7---7----7------7------7-----|--7---7----7------7------7-----|
|
|  |--3--|  |-3-|  |-3-|  |-3-|    |--3--|  |-3-|  |-3-|  |-3-|
|  E E   E  E E E  E E E  E E E    E E   E  E E E  E E E  E E E
|-10-7---9--7---7-10-7-9--7---7-|-10-7---9--7-7-7-10-7-9--7-7-7-|
|-------------9-------------9---|-------------------------------|
|-------------------------------|-------------------------------|
|-------------------------------|-------------------------------|
|-------------------------------|-------------------------------|
|-------------------------------|-------------------------------|


   E   E    Q      Q      Q
|--------------------------------|
|--------------------------------|
|--------------------------------|
|--------------------------------|
|-12---9---11------9-----11------|
|--7---7----7------7------7------|
|
|  |--3--|  |-3-|  |-3-|  |-3-|
|  E E   E  E E E  E E E  E E E
|-10-7---9--7-7-7-10-7-9--7-7-7--|
|--------------------------------|
|--------------------------------|
|--------------------------------|
|--------------------------------|
|--------------------------------|


   E   E    Q      Q      Q        E   E    Q      Q      Q
|-------------------------------|-------------------------------|
|-------------------------------|-------------------------------|
|-------------------------------|-------------------------------|
|-------------------------------|-------------------------------|
|-12---9---11------9-----11-----|-12---9---11------9-----11-----|
|--7---7----7------7------7-----|--7---7----7------7------7-----|
|
|  |--3--|  |-3-|  |-3-|  |-3-|    |--3--|  |-3-|  |-3-|  |-3-|
|  E E   E  E E E  E E E  E E E    E E   E  E E E  E E E  E E E
|-10-7---9--7-7-7-10-7-9--7-7-7-|-10-7---9--7-7-7-10-7-9--7-7-7-|
|-------------------------------|-------------------------------|
|-------------------------------|-------------------------------|
|-------------------------------|-------------------------------|
|-------------------------------|-------------------------------|
|-------------------------------|-------------------------------|


   E   E    Q      Q      Q
|--------------------------------|
|--------------------------------|
|--------------------------------|
|--------------------------------|
|-12---9---11------9-----11------|
|--7---7----7------7------7------|
|
|  |--3--|  |-3-|  |-3-|  |-3-|
|  E E   E  E E E  E E E  E E E
|-10-7---9--7-7-7-10-7-9--7-7-7--|
|--------------------------------|
|--------------------------------|
|--------------------------------|
|--------------------------------|
|--------------------------------|


   E   E    Q      E   E    Q        E   E    Q      E   E    Q
|---------------------------------|---------------------------------|
|---------------------------------|---------------------------------|
|---------------------------------|---------------------------------|
|---------------------------------|---------------------------------|
|-12---9---11-----12---9---11-----|-12---9---11-----12---9---11-----|
|--7---7----7------7---7----7-----|--7---7----7------7---7----7-----|
|
|  |--3--|  |-3-|  |--3--|  |-3-|    |--3--|  |-3-|  |--3--|  |-3-|
|  E E   E  E E E  E E   E  E E E    E E   E  E E E  E E   E  E E E
|-10-7---9--7-7-7-10-7---9--7-7-7-|-10-7---9--7-7-7-10-7---9--7-7-7-|
|---------------------------------|---------------------------------|
|---------------------------------|---------------------------------|
|---------------------------------|---------------------------------|
|---------------------------------|---------------------------------|
|---------------------------------|---------------------------------|


  A/B                                            B
   W                              +H..             E
|------------------------------|-------------------------|
|--5---------------------------|--(5)--------------7-----|
|--6---------------------------|--(6)--------------8-----|
|--7---------------------------|--(7)--------------9-----|
|------------------------------|-------------------------|
|--7------------7----7---7-----|---7----7--7---7---------|
|  Q            Q    Q   Q         Q    Q  Q   Q
|
|               ~~~~~
|  E      +E   +H        Q        +H.          E  +E
|-10b12==(10)-(10)r-----10b12--|-(10)---------10-(10)b12-|
|------------------------------|-------------------------|
|------------------------------|-------------------------|
|------------------------------|-------------------------|
|------------------------------|-------------------------|
|------------------------------|-------------------------|


                                                     A/B
   +W                          +H..                   E
|----------------------------|---------------------------|
|--(7)-----------------------|-(7)--------------------5--|
|--(8)-----------------------|-(8)--------------------6--|
|--(9)-----------------------|-(9)--------------------7--|
|----------------------------|---------------------------|
|---7----7--------7-----7----|--7------7-----7---7-------|
|   Q    Q        Q     Q       Q      Q     Q   Q
|
|   ~~~~
|                                      |-3-|
|  +Q    Q        E  E  E  E    E    E E E E E E E   +E
|-(10)--10b10.5--------------|---------------------------|
|----------------12-10-12-10-|---------------------------|
|----------------------------|-11---10-9s7---9---7b9-(7)-|
|----------------------------|-------------9---9---------|
|----------------------------|---------------------------|
|----------------------------|---------------------------|


                    E/B                           B
  +H..              E   +H..                      E
|---------------------|-----------------------------|
|-(5)---------------5-|-(5)-----------------------7-|
|-(6)---------------4-|-(4)-----------------------8-|
|-(7)---------------6-|-(6)-----------------------9-|
|---------------------|-----------------------------|
|--7------7---7---7---|--7-----7----7--------7------|
|  Q      Q   Q   Q      Q     Q    Q        Q
|
|                                   |--3--|
|  Q      E E E E E E    E   E E E  E  E  E  Q
|---------------------|-----------------------------|
|---------------------|------------------10-12b15---|
|--7b7.5----------7---|--9-----7-9s10s11------------|
|---------9---7-9---9-|------9----------------------|
|-----------9---------|-----------------------------|
|---------------------|-----------------------------|


   +W                  +W
|--------------------|----------------------|
|--(7)---------------|-(7)------------------|
|--(8)---------------|-(8)------------------|
|--(9)---------------|-(9)------------------|
|--------------------|----------------------|
|---7---7---7-----7--|--7-----7---7------7--|
|   Q   Q   Q     Q     Q     Q   Q      Q
|
|                                 ~~~~~~
|  +H       H           H         H
|--------------------|----------------------|
|-(12)-----12b15-----|-12b15-----12b15======|
|--------------------|----------------------|
|--------------------|----------------------|
|--------------------|----------------------|
|--------------------|----------------------|


  A/B                                           B
    W                        +H..               E
|--------------------------|----------------------|
|---5----------------------|-(5)----------------7-|
|---6----------------------|-(6)----------------8-|
|---7----------------------|-(7)----------------9-|
|--------------------------|----------------------|
|---7-----7-----7-----7----|--7-------7---7---7---|
|   Q     Q     Q     Q       Q       Q   Q   Q
|
|   ~~~~~
|  +Q     E  E  E  E  E  E    E    E  E E E E E E
|-----------------------10-|----------------------|
|-(12)r--12-10-12-10-------|-12---10--------------|
|--------------------11----|---------\9-7-9-7---7-|
|--------------------------|------------------9---|
|--------------------------|----------------------|
|--------------------------|----------------------|


                                                         A/B
  +W                            +H..                     E
|-----------------------------|----------------------------|
|-(7)-------------------------|-(7)----------------------5-|
|-(8)-------------------------|-(8)----------------------6-|
|-(9)-------------------------|-(9)----------------------7-|
|-----------------------------|----------------------------|
|--7------7---------7-----7---|--7-------7---7------7------|
|  Q      Q         Q     Q      Q       Q   Q      Q
|
|                                |--3--|
|  E    E E  E     +E  E  E E    E   E E E E E    E E    E
|---------7------------7------|----------------------------|
|-------7---10b12-(10)---10-7-|-------------------7------7-|
|--9b11-----------------------|-10p==9p7-9-7-9b11---9b11---|
|-----------------------------|----------------------------|
|-----------------------------|----------------------------|
|-----------------------------|----------------------------|


                         E/B                         B
  +H..                   E   +H..                    E
|--------------------------|---------------------------|
|-(5)--------------------5-|-(5)---------------------7-|
|-(6)--------------------4-|-(4)---------------------8-|
|-(7)--------------------6-|-(6)---------------------9-|
|--------------------------|---------------------------|
|--7-----7------7------7---|--7------7------7---7------|
|  Q     Q      Q      Q      Q      Q      Q   Q
|
| +E   E E    E E E    E E    E    E E E    E E E    E
|--------------------------|---------------------------|
|-(7)--7------7-7------7-7-|-------7-7------7-7------7-|
|--------9b11-----9b11-----|--9b11-----9b11-----9b11---|
|--------------------------|---------------------------|
|--------------------------|---------------------------|
|--------------------------|---------------------------|


  +W                        +W
|-------------------------|------------------------||
|-(7)---------------------|-(7)--------------------||
|-(8)---------------------|-(8)--------------------||
|-(9)---------------------|-(9)--------------------||
|-------------------------|------------------------||
|--7----------7---7---7---|--7------7---7-----7----||
|  Q          Q   Q   Q      Q      Q   Q     Q
|
|             ~~~~
|                            |-3--|     |-3-|
|  E   E     +H       E E    E  E E E E E E E Q
|-------------------------|------------------------||
|--7--10b12-(10)-----10-7-|--7----------7----------||
|-------------------------|-----9p7-9-7---9p7------||
|-------------------------|-------------------9\---||
|-------------------------|------------------------||
|-------------------------|------------------------||


 3rd Verse
  E/B                     D/B
  E E E E E E E E   E E E E    +H
|-----------------|-------------------------|
|-----9-------9---|---9---7----(7)----------|
|-----9-------9---|---9---7tr6-(7tr6)-------|
|-----9-------9---|---9---7----(7)----------|
|-----------------|-------------------------|
|-7-7-7-7-7-7-7-7-|-7-7-7-7----(7)----------|
|
| W                 H           E     E E E
|-----------------|-------------------------|
|-----------------|-------------------------|
|-----------------|-------------------7-----|
|-----------------|---------------------7-9-|
|-----------------|-------------------------|
|-----------------|-------------------------|


  E/B                       D/B
   E  E E E E E E E   E E E E    +H
|-------------------|-------------------------------|
|-------9-------9---|---9---7----(7)----------------|
|-------9-------9---|---9---7tr6-(7tr6)-------------|
|-------9-------9---|---9---7----(7)----------------|
|-------------------|-------------------------------|
|--7--7-7-7-7-7-7-7-|-7-7-7-7----(7)----------------|
|
|  ~~~
| +Q.     E H         H           E     E    +E  E
|-------------------|-------------------------------|
|-------------------|-------------------------------|
|---------7---------|-------------------------------|
|-(9)---------------|-------------------------------|
|-------------------|-------------------7pb8r(7)-5--|
|-------------------|-------------------------------|


  E/B                       D/B                B7
   E  E E E E E E E   E E E E    +H            Q  Q  H
|-------------------|------------------------|------------|
|-------9-------9---|---9---7----(7)---------|-7----------|
|-------9-------9---|---9---7tr6-(7tr6)------|-8----------|
|-------9-------9---|---9---7----(7)---------|-7----------|
|-------------------|------------------------|------------|
|--7--7-7-7-7-7-7-7-|-7-7-7-7----(7)---------|-7----------|
|
|  ~~~
| +W                  H           E     E Q    Q  Q  H
|-------------------|------------------------|------------|
|-------------------|------------------------|------------|
|-------------------|------------------------|------------|
|-------------------|------------------------|------------|
|-(5)---------------|------------------------|------------|
|-------------------|-------------------x-5--|-7----------|


  N.C.
  H    Q   Q     Q   Q   Q   Q     Q    Q   Q   Q
|--------------|-----------------|-----------------||
|--------------|-----------------|-----------------||
|--------------|-----------------|-----------------||
|----------9\--|-2---------------|-----------------||
|--------------|---------2-------|----------4---6--||
|--------------|-----4-------4---|-2----6----------||
|
| H    Q   Q     Q   E E E E E E   E E  E E E E Q
|--------------|-----------------|-----------------||
|--------------|-----------------|-----------------||
|--------------|---------4-4-6-6-|----------6-6-8--||
|---------/9\--|-2--/6-6---------|-4-4-/8-8--------||
|--------------|-----------------|-----------------||
|--------------|-----------------|-----------------||


 Interlude
  A/B                         B                                    A/B
  W             +H..           E   +W                +H..          E
|-------------|------------------|-----------------|------------------|
|-5-----------|-(5)------------7-|-(7)-------------|-(7)-----------5--|
|-6-----------|-(6)------------8-|-(8)-------------|-(8)-----------6--|
|-7-----------|-(7)------------9-|-(9)-------------|-(9)-----------7--|
|-------------|------------------|-----------------|------------------|
|-7--7--7--7--|--7----7--7--7----|--7---7---7---7--|--7----7--7--7----|
| Q  Q  Q  Q     Q    Q  Q  Q       Q   Q   Q   Q     Q    Q  Q  Q
|
| ~~~~~~~~~~~~~~~~~~~               ~~~~~~~~~~~~~~~~~~~~~~
| W             +H.         E  E   +H      +H        +H..          E
|-------------|------------------|-----------------|------------------|
|-------------|------------------|-----------------|------------------|
|-------------|---------------/8-|-(8)-----(8)-----|-(8)-----------9--|
|-9-----------|-(9)--------------|-----------------|------------------|
|-------------|------------------|-----------------|------------------|
|-------------|------------------|-----------------|------------------|


                E/B                           B
  +H..           E        +H..                 E
|----------------------|-------------------------|
|-(5)------------5-----|--(5)------------------7-|
|-(6)------------4-----|--(4)------------------8-|
|-(7)------------6-----|--(6)------------------9-|
|----------------------|-------------------------|
|--7----7--7--7--------|---7----7----7-----7-----|
|  Q    Q  Q  Q            Q    Q    Q     Q
|
|  ~~~~
| +H..           E        +H        +Q    +E   E
|----------------------|-------------------------|
|----------------------|-------------------------|
|-(9)-----------11b13==|=(11)------(11)r=(11)-11-|
|----------------------|-------------------------|
|----------------------|-------------------------|
|----------------------|-------------------------|


   +W               +W
|----------------|-----------------------|
|--(7)-----------|--(7)------------------|
|--(8)-----------|--(8)------------------|
|--(9)-----------|--(9)------------------|
|----------------|-----------------------|
|---7---7--7--7--|---7---7--7-------7----|
|   Q   Q  Q  Q      Q   Q  Q       Q
|
|   ~~~~~~~~~~~~~~~~~~~~
|  +W               +H      E E    +Q
|----------------|-----------------------|
|----------------|-----------------------|
|-(11)-----------|-(11)-------9b11-(9)---|
|----------------|-----------------------|
|----------------|-----------------------|
|----------------|-----------------------|


  A/B                                 B
  W             +H..                  E
|-------------|-------------------------|
|-5-----------|-(5)-------------------7-|
|-6-----------|-(6)-------------------8-|
|-7-----------|-(7)-------------------9-|
|-------------|-------------------------|
|-7--7--7--7--|--7----7---7--------7----|
| Q  Q  Q  Q     Q    Q   Q        Q
|
| W             +H       +E  E    +E  E
|-------------|-------------------------|
|-7-----------|-(7)------(7)----------7-|
|-------------|--------------9b11-(9)---|
|-------------|-------------------------|
|-------------|-------------------------|
|-------------|-------------------------|


                                        A/B
  +W              +H..                  E
|---------------|--------------------------|
|-(7)-----------|-(7)-------------------5--|
|-(8)-----------|-(8)-------------------6--|
|-(9)-----------|-(9)-------------------7--|
|---------------|--------------------------|
|--7---7--7--7--|--7----7---7--------7-----|
|  Q   Q  Q  Q     Q    Q   Q        Q
|
|  ~~~~~~~~~~~~~~~~~~~~~~~~~~~~
| +W              +H       +E  E    +E  E
|---------------|--------------------------|
|-(7)-----------|-(7)------(7)----------7--|
|---------------|--------------9b11-(9)----|
|---------------|--------------------------|
|---------------|--------------------------|
|---------------|--------------------------|


                   E/B                  B
  +H..             E   +H..             E   +W              +W
|--------------------|--------------------|---------------|----------------||
|-(5)--------------5-|-(5)--------------7-|-(7)-----------|-(7)------------||
|-(6)--------------4-|-(4)--------------8-|-(8)-----------|-(8)------------||
|-(7)--------------6-|-(6)--------------9-|-(9)-----------|-(9)------------||
|--------------------|--------------------|---------------|----------------||
|--7----7--7--7------|--7----7--7--7------|--7---7--7--7--|--7---7--7--7---||
|  Q    Q  Q  Q         Q    Q  Q  Q         Q   Q  Q  Q     Q   Q  Q  Q
|
|  ~~~~                 ~~~~                 ~~~~~~~~~~~~~~~~~~~
| +H.         E    E   +H.         E    E   +W              +H.        q
|--------------------|--------------------|---------------|------------7---||
|-(7)--------------7-|-(7)--------------7-|-(7)-----------|-(7)------------||
|-------------9b11---|-------------9b11---|---------------|----------------||
|--------------------|--------------------|---------------|----------------||
|--------------------|--------------------|---------------|----------------||
|--------------------|--------------------|---------------|----------------||


 Guitar Solo
  A/B                           B                                 A/B
    W             +H..          E   +W              +H..           E
|---------------|-----------------|---------------|-------------------|
|---5-----------|-(5)-----------7-|-(7)-----------|-(7)------------5--|
|---6-----------|-(6)-----------8-|-(8)-----------|-(8)------------6--|
|---7-----------|-(7)-----------9-|-(9)-----------|-(9)------------7--|
|---------------|-----------------|---------------|-------------------|
|---7--7--7--7--|--7----7--7--7---|--7---7--7--7--|--7----7--7--7-----|
|   Q  Q  Q  Q     Q    Q  Q  Q      Q   Q  Q  Q     Q    Q  Q  Q
|
|   ~~~~~~~~~~~~~~~~~~~~~~~~~~~~~~~~~~~~~~~~~~~~~~~~~~~~~~~~~~~~~~~~~
|   W              W                 W               H..           E
|---------------|-----------------|---------------|-------------------|
|-/12-----------|-12--------------|-12------------|-12------------12--|
|---------------|-----------------|---------------|-------------------|
|---------------|-----------------|---------------|-------------------|
|---------------|-----------------|---------------|-------------------|
|---------------|-----------------|---------------|-------------------|


                 E/B                 B
   +H..           E    +H..           E
|-------------------|-------------------|
|--(5)------------5-|--(5)------------7-|
|--(6)------------4-|--(4)------------8-|
|--(7)------------6-|--(6)------------9-|
|-------------------|-------------------|
|---7----7--7--7----|---7----7--7--7----|
|   Q    Q  Q  Q        Q    Q  Q  Q
|
|   ~~~~~~~~~~~~~~~~~~~~~~~~~~~~~~~~~~~~~
|  +H..           E    +H..           E
|-------------------|-------------------|
|-(12)-----------12-|-(12)-----------12-|
|-------------------|-------------------|
|-------------------|-------------------|
|-------------------|-------------------|
|-------------------|-------------------|


   +W                    +W
|----------------------|-----------------------|
|--(7)-----------------|-(7)-------------------|
|--(8)-----------------|-(8)-------------------|
|--(9)-----------------|-(9)-------------------|
|----------------------|-----------------------|
|---7---7---7----7-----|--7----7----7---7------|
|   Q   Q   Q    Q        Q    Q    Q   Q
|
|~~~~~~
|                |-3-|                  |-3-|
|  +H       E E  E E E    E  E E  E E E E E E
|----------------------|-----------------------|
|-(12)-----10-7--------|-----------------------|
|---------------10p9p7-|--9--7-9-10-9-7-9p7----|
|----------------------|--------------------9--|
|----------------------|-----------------------|
|----------------------|-----------------------|


  A/B                                           B
  W                      +H..                    E
|----------------------|---------------------------|
|-5--------------------|-(5)---------------------7-|
|-6--------------------|-(6)---------------------8-|
|-7--------------------|-(7)---------------------9-|
|----------------------|---------------------------|
|-7---7-----7-----7----|--7-------7-----7-----7----|
| Q   Q     Q     Q       Q       Q     Q     Q
|
| E E E E   E  E  E  E    E    E  E  E  E  E  E  E
|----------------------|------------------------10-|
|-------------10-12-10-|-12---10----10-12-10-12----|
|-9-7---7-/11----------|---------11----------------|
|-----9----------------|---------------------------|
|----------------------|---------------------------|
|----------------------|---------------------------|


                                                                   A/B
  +W                             +H..                              E
|-----------------------------|---------------------------------------|
|-(7)-------------------------|--(7)-------------------------------5--|
|-(8)-------------------------|--(8)-------------------------------6--|
|-(9)-------------------------|--(9)-------------------------------7--|
|-----------------------------|---------------------------------------|
|--7------7-----7----------7--|---7--------------7-----7---------7----|
|  Q      Q     Q          Q      Q              Q     Q         Q
|
|  E   E  E  E  E      +Q.       +E    +E       +Q    +E    Q.
|-----10-12-10-12b14==(12)----|-(12)r-(12)b14==(12)--(12)r-12b14------|
|-12--------------------------|---------------------------------------|
|-----------------------------|---------------------------------------|
|-----------------------------|---------------------------------------|
|-----------------------------|---------------------------------------|
|-----------------------------|---------------------------------------|


                  E/B                                B
  +H..             E   +H..                          E
|--------------------|---------------------------------|
|-(5)--------------5-|-(5)---------------------------7-|
|-(6)--------------4-|-(4)---------------------------8-|
|-(7)--------------6-|-(6)---------------------------9-|
|--------------------|---------------------------------|
|--7-----7--7---7----|--7-------7--------7---------7---|
|  Q     Q  Q   Q       Q       Q        Q         Q
|
|  ~~~~~
|                                        |--3---|
|  H.           E  E    E    E  Q       +E   E  E  Q
|-12b14--------12-10-|-12---10-12b14===(12)r12p10-12---|
|--------------------|---------------------------------|
|--------------------|---------------------------------|
|--------------------|---------------------------------|
|--------------------|---------------------------------|
|--------------------|---------------------------------|


  +W                         +W
|--------------------------|--------------------------|
|-(7)----------------------|-(7)----------------------|
|-(8)----------------------|-(8)----------------------|
|-(9)----------------------|-(9)----------------------|
|--------------------------|--------------------------|
|--7--------7-----7---7----|--7------7-----7-----7----|
|  Q        Q     Q   Q       Q      Q     Q     Q
|
|  Q        E  E  Q   E  E    E   E  E  E  E  E  E  E
|-10b10.5------------10----|-12-----10----10----10-12-|
|----------12-10-12-----12-|-----12----12----12-------|
|--------------------------|--------------------------|
|--------------------------|--------------------------|
|--------------------------|--------------------------|
|--------------------------|--------------------------|


  A/B                                        B
    W                   +H..                  E
|---------------------|-------------------------|
|---5-----------------|-(5)-------------------7-|
|---6-----------------|-(6)-------------------8-|
|---7-----------------|-(7)-------------------9-|
|---------------------|-------------------------|
|---7----7---7-----7--|--7-------7---7-----7----|
|   Q    Q   Q     Q     Q       Q   Q     Q
|
|   Q    Q   E  E  Q     E    E  Q   E  E  E  E
|-/14--/14--17-14-17--|-17---14-17--17-14----14-|
|---------------------|-------------------17----|
|---------------------|-------------------------|
|---------------------|-------------------------|
|---------------------|-------------------------|
|---------------------|-------------------------|


                                                          A
  +W                        Q       Q       Q       E     E
|------------------------|-----------------------------------|
|-(7)--------------------|--7-------7-------7-------7-----5--|
|-(8)--------------------|--8-------8-------8-------8-----6--|
|-(9)--------------------|--9-------9-------9-------9-----7--|
|------------------------|-----------------------------------|
|--7-------7---7---7-----|--7-------7-------7-------7-----5--|
|  Q       Q   Q   Q
|
|          ~~~~~~~~~~~~~~~~~~~~~~~~~~~~~~~~~~~~~~~~~~~~~~~
|  Q      +H       Q        Q       Q       Q       Q
|-17b19--(17)-----17b19--|-17pb19--17pb19--17pb19--17pb19----|
|------------------------|-----------------------------------|
|------------------------|-----------------------------------|
|------------------------|-----------------------------------|
|------------------------|-----------------------------------|
|------------------------|-----------------------------------|


   TP
   W
|---------------------------------|
|--5------------------------------|
|--6------------------------------|
|--7------------------------------|
|---------------------------------|
|--5------------------------------|
|
|  ~~~~~~~~~~~~~~~~~~~~~~~~~~~~~~~~
|  Q       Q       Q       Q
|-17pb19--17pb19--17pb19--17pb19--|
|---------------------------------|
|---------------------------------|
|---------------------------------|
|---------------------------------|
|---------------------------------|


                                                    5/4
   TP                                TP
   W                                 W                 Q    W
|---------------------------------|----------------|-------------||
|--5------------------------------|--5-------------|---5---------||
|--6------------------------------|--6-------------|---6---------||
|--7------------------------------|--7-------------|---7---------||
|---------------------------------|----------------|-------------||
|--5------------------------------|--5-------------|---5---------||
|
|~~~~~~~~~~~~~~~~~~~~~~~~~~~~~~~~~~~~~~~~~~~~~~~~~~~~~~~~~~
|  Q       Q       Q       Q         W                +Q    W
|-17pb19--17pb19--17pb19--17pb19--|-17pb19=========|=(17)r-------||
|---------------------------------|----------------|-------------||
|---------------------------------|----------------|-------------||
|---------------------------------|----------------|-------------||
|---------------------------------|----------------|-------------||
|---------------------------------|----------------|-------------||


 Outro
  Free time Q=132
  E/B
 4/4
   TP
   W
|----------------------------:
|--9-------------------------:
|--9-------------------------:
|--9-------------------------:
|--7-------------------------:
|--7-------------------------:
|
|  E     +Q.    Q      Q
|-22b24-(22)---22b24--22b24--:
|----------------------------:
|----------------------------:
|----------------------------:
|----------------------------:
|----------------------------:


   TP                              TP
   W                               H.             Q
|------------------------------:---------------------:
|--9---------------------------:---9-----------------:
|--9---------------------------:---9-----------------:
|--9---------------------------:---9-----------------:
|--7---------------------------:---7-----------------:
|--7---------------------------:---7-----------------:
|
|                ~~~~~                      ~~~~
|  Q      Q      Q.      E        +E    E  +H     Q
|-22b24--22b24--22b24---22b24==:=(22)r-22-(22)-------:
|------------------------------:---------------------:
|------------------------------:---------------------:
|------------------------------:---------------------:
|------------------------------:---------------------:
|------------------------------:---------------------:


  Q=180
  B5
 3/4              4/4
         TP         TP                                           TP
  H      Q          W                                            W
|----------------:-------------------------------------------:-------------:
|----------------:-------------------------------------------:-------------:
|----------------:-------------------------------------------:-------------:
|-9------9-------:--9----------------------------------------:---9---------:
|-9------9-------:--9----------------------------------------:---9---------:
|-7------7-------:--7----------------------------------------:---7---------:
|
|        |--3--|    |--3--|       |---3---|  |--3--|
| H      E  E  E    Q     E      +E    E  E  E  E  E  Q         +W
|----------------:-------------------------------------------:-------------:
|----------15-17-:-17b19-17b19==(17)r-17-15-17p15----15tr17--:-(15tr17)----:
|------/16-------:--------------------------------16---------:-------------:
|----------------:-------------------------------------------:-------------:
|----------------:-------------------------------------------:-------------:
|----------------:-------------------------------------------:-------------:


   TP
   W               W                    H       H
|---------------:-------------------:----------------*|
|---------------:-------------------:----------------*|
|---------------:-------------------:----------------*|
|--9------------:--9----------------:---9\-----------*|
|--9------------:--9----------------:---9\-----------*|
|--7------------:--7----------------:---7\-----------*|
|
|  W               Q       +H.         +H       H
|---------------:-------------------:----------------*|
|-19tr22--------:-22b24===(22)------:-(22)r\---------*|
|---------------:-------------------:----------------*|
|---------------:-------------------:----------------*|
|---------------:-------------------:----------------*|
|---------------:-------------------:----------------*|


Duration Legend
---------------
W - whole; H - half; Q - quarter; E - 8th; S - 16th; T - 32nd; X - 64th; a - acciaccatura
+ - note tied to previous; . - note dotted; .. - note double dotted
Uncapitalized letters represent notes that are staccato (1/2 duration)
Irregular groupings are notated above the duration line
Duration letters will always appear directly above the note/fret number it represents the
duration for.  Duration letters with no fret number below them represent rests.  Multi-
bar rests are notated in the form Wxn, where n is the number of bars to rest for.  Low
melody durations appear below the staff

Tablature Legend
----------------
 h   - hammer-on
 p   - pull-off
 b   - bend
 pb  - pre-bend
 r   - bend release (if no number after the r, then release immediately)
 /\  - slide into or out of (from/to "nowhere")
 s   - legato slide
 S   - shift slide
  - natural harmonic
[n]  - artificial harmonic
n(n) - tapped harmonic
 ~   - vibrato
 tr  - trill
 T   - tap
 TP  - trem. picking
 PM  - palm muting
\n/  - tremolo bar dip; n = amount to dip
 \n  - tremolo bar down
 n/  - tremolo bar up
/n\  - tremolo bar inverted dip
 =   - hold bend; also acts as connecting device for hammers/pulls
 <>  - volume swell (louder/softer)
 x   - on rhythm slash represents muted slash
 o   - on rhythm slash represents single note slash

Misc Legend
-----------
 |  - bar
||  - double bar
||o - repeat start
o|| - repeat end
*|  - double bar (ending)
 :  - bar (freetime)
 $  - Segno
 &  - Coda
Tempo markers -  = BPM(8/16=s8/s16), where s8 = swing 8ths, s16 = swing 16ths
Добавлено: 21.07.2015
Вам также может быть интересно:
Другие материалы по этой песне:

Страница создана 11.08.2013
http://primanota.ru/montrose/good-rockin-tonight-chords.htm
Привет, Гость.
Предлагаем пройти революционный курс по гитаре.
Подарок от PrimaNota.Ru, забирай!