PrimaNota.ru - самый крупный в мире бесплатный архив песенных текстов, аккордов, табулатур и нот


Montevideo - Castles - бас-таба, видео

Регистрация Запомнить меня
Войти через:  Facebook Google Twitter Vk Yandex Mail.ru

Montevideo - Castles - бас-таба, видео

Печатать
Просмотров: 91
-------------------------------------------------------------------------------
                             Castles - Montevideo
-------------------------------------------------------------------------------
Tabbed by: Rafache (aka geniuspokus)
Song: https://soundcloud.com/montevideo/montevideo-castles-1
Website: http://www.montevideo.be/

Tuning: Standard (EADG)

Verse:

G|---------------|
D|---------7--0--|
A|--10--8--------|
E|---------------|


Chorus:

G|-----------------------------------------------------------14------14-----7-----7--|
D|--5----5----5----5----5----5----5--8--10--12--13-15----12------12------5-----5-----|
A|-----------------------------------------------------------------------------------|
E|-----------------------------------------------------------------------------------|

End:

G|----------|
D|----------|
A|--5--7-9--|
E|----------|
Добавлено: 15.11.2013
Другие материалы по этой песне:
  • Аккорды и текст

Страница создана 15.11.2013
http://primanota.ru/montevideo/castles-chords.htm
Привет, Гость.
Предлагаем пройти революционный курс по гитаре.
Подарок от PrimaNota.Ru, забирай!