PrimaNota.ru - самый крупный в мире бесплатный архив песенных текстов, аккордов, табулатур и нот


Monte Montgomery - Wishing Well - аккорды и текст, видео

Регистрация Запомнить меня
Войти через:  Facebook Google Twitter Vk Yandex Mail.ru

Monte Montgomery - Wishing Well - аккорды и текст, видео

Печатать
Просмотров: 162
Уроки эстрадного вокала в Санкт-Петербурге
Wishing Well
Monte Montgomery
-----------------------------------------------------------------------------
                        Monte Montgomery - Wishing Well
-----------------------------------------------------------------------------
Tabbed by: psychiccheese
Tuning: standard


Chords Used:
    E   Aadd9   E*   Abm   F#m  Badd9   A*    A5
e|-----|-----|-----|-----|-----|-----|-----|-----|
B|-----|-----|-----|-----|-----|-----|--4--|-----|
G|--1--|--2--|--1--|--X--|--X--|--4--|--2--|--6--|
D|--2--|--2--|--2--|--6--|--4--|--4--|--2--|--7--|
A|--2--|-----|-----|--6--|--4--|--2--|-----|--7--|
E|-----|-----|-----|--4--|--2--|-----|-----|--5--|

Listen to the song for strumming patterns



[Intro]
e|-----|-----------------|-----------|-----------------|
B|-----|-----------------|-----------|-----------------|
G|-----|--9--8--6--4--4--|-2---------|--9--8--6--4--4--|
D|-----|--9--9--7--2--4--|-2---------|--9--9--7--2--4--|
A|-----|--7--7--7-----2--|-----------|--7--7--7-----2--|
E|-0-00|-(0)----0--------|---4-2--00-|-(0)----0--------|


       E
In the corner of a box marked lost and found
Aadd9               E*
I find myself again
E
Lining the bottom of a wishing well
           Aadd9                       E*
with other dreams that might have been
E
Flattened by the pressure of what's coming down
    Aadd9                        E*
I'm relying on faith second hand


[Chorus]:
Aadd9           Abm
I used to be an average man
     Aadd9                     E*
with bigger than average plans
Aadd9         Abm            F#m
Somehow I got lost along the way
            Badd9
and now I'm here
                    E                              Aadd9
Don't you know that you could be the one to set me free
                   E                                 Aadd9  A* Aadd9 A
I've waited all my life to be someone somebody could see
        Abm                  F#m         Abm
You can find me still in the corner of a box
                A5                       Badd9
marked lost and found at the bottom of a wishing well

E [Intro Riff]


E
Burdened by the weight of a wrecking ball
    Aadd9                          E*
I'm defining my own sense of worth
  E
I want to bathe my soul in the light
     Aadd9                    E*
as religion finds me immersed
E
Destitution knows me by name
          Aadd9                           E*
While the trick is to sit where you stand

[Chorus]


I'm caught shuddering by myself
each wish in the shape of a coin
Legal tender for wishes thrown
as the water reflects the unknown
The tide rips through the surface of time
But I can't think of when it began

[Chorus]
Добавлено: 09.07.2012
Другие материалы по этой песне:
  • Аккорды и текст

Страница создана 09.07.2012
http://primanota.ru/monte-montgomery/wishing-well-chords.htm
Привет, Гость.
Предлагаем пройти революционный курс по гитаре.
Подарок от PrimaNota.Ru, забирай!