PrimaNota.ru - самый крупный в мире бесплатный архив песенных текстов, аккордов, табулатур и нот


Monster Truck - Seven Seas Blues - таба, видео

Регистрация Запомнить меня
Войти через:  Facebook Google Twitter Vk Yandex Mail.ru

Monster Truck - Seven Seas Blues - таба, видео

Печатать
Просмотров: 147
Уроки эстрадного вокала в Санкт-Петербурге
-------------------------------------------------------------------------------
                        Seven Seas Blues - Monster Truck
-------------------------------------------------------------------------------

Official Website: http://ilovemonstertruck.com

Tabbed by: Brandon
Email: brandon_819@msn.com

Tuning: D-Standard
I finally got around to transposing the tab so it should be accurate now.
I haven't been able to test it out because I don't have a guitar tuned a
whole step down, but I'm sure Jer will catch any mistakes that I made ;)

Intro
d|---|---------------------------|         *Note* in this tab ~ means let ring
A|---|---------------------------|                        and * means vibrato
F|---|---------------------------|                        and . means staccato
C|---|---------------------------|              and of course x means palm mute           
G|---|---7*---7-5-2~-3-2---------|
D|12/|-0~--0~------------5-0-3-2-|x4

Verse
d|------------------------------------------------------------------------|
A|------------------------------------------------------------------------|
F|------------------------------------------------------------------------|
C|------------------------------------------------------------------------|
G|------------------------------------------------------------------------|
D|-0-0-0-0-0-0-0-065-3-3-3-3-3-3-3-065-0-0-0-0-0-0-0-065-3-3-3-3030303065-|
   x x x x x x x xxx x x x x x x x xxx x x x x x x x xxx x x x x 

d|---------------------------------------------------------------------------------|
A|---------------------------------------------------------------------------------|
F|---------------------------------------------------------------------------------|
C|---------------------------------------------------------------------------------|
G|---------------------------------------------------------------------------------|
D|-0-0-0-0-0-0-0-065-3-3-3-303-3-3-065-0-0-0-0-0-0-0-065-3-3-3-3-0-3-0-3-0-3-0-065-|
   . . . . . . .     . . . . . . .     . . . . . . .     . . . . 

Chorus
d|---------------------------|
A|---------------------------|
F|---------------------------|
C|---------------------------|           
G|---7*---7-5-2~-3-2---------|
D|-0~--0~------------5-0-3-2-|x4

Verse 2
d|------------------------------------------------------------------------|
A|------------------------------------------------------------------------|
F|------------------------------------------------------------------------|
C|------------------------------------------------------------------------|
G|------------------------------------------------------------------------|
D|-0-0-0-0-0-0-0-065-3-3-3-3-3-3-3-065-0-0-0-0-0-0-0-065-3-3-3-3030303065-|
   x x x x x x x xxx x x x x x x x xxx x x x x x x x xxx x x x x 

d|---------------------------------------------------------------------------------|
A|---------------------------------------------------------------------------------|
F|---------------------------------------------------------------------------------|
C|---------------------------------------------------------------------------------|
G|---------------------------------------------------------------------------------|
D|-0-0-0-0-0-0-0-065-3-3-3-3-3-3-3-065-0-0-0-0-0-0-0-065-3-3-3-3-0-3-0-3-0-3-0-065-|
   . . . . . . .     . . . . . . .     . . . . . . .     . . . . 

Chorus 2
d|---------------------------|
A|---------------------------|
F|---------------------------|
C|---------------------------|           
G|---7*---7-5-2~-3-2---------|
D|-0~--0~------------5-0-3-2-|x4

Interlude
e|--------------------------|
B|--------------------------|
G|--------------------------|
D|--------------------------|           
A|--------2~----------------|
D|-0~-023---0~-8~-5-353-232-|x6

Solo (Starts after Interlude plays twice)
e|--------------------------------------------------------------------------|
B|-12-----12---------12-----12---------17-----17--------17-----17----20-----|
G|-14b16~-14b16-14~--14b16~-14b16-14~--19b21~-19b21-19~-19b21~-19b21-22b24~-|
D|--------------------------------------------------------------------------|
A|--------------------------------------------------------------------------|
D|--------------------------------------------------------------------------|

Bridge
e|---------------------------|
B|---------------------------|
G|---------------------------|
D|---------------------------|           
A|---7*---7-5-2~-3-2---------|
D|-----0~------------5-0-3-2-|x4

Chorus 3
e|---------------------------|
B|---------------------------|
G|---------------------------|
D|---------------------------|           
A|---7*---7-5-2~-3-2---------|
D|-0~--0~------------5-0-3-2-|x3

e|---------------------------|
B|---------------------------|
G|---------------------------|
D|---------------------------|           
A|---7*---7-5-2~-3-2---------|
D|-----0~------------5-0-3-2-|

Outro
e|-----------|
B|-----------|  
G|-----------|  Add random feedback if you
D|-----------|  wanna fade out, otherwise
A|-----------|  just end on open D
D|-0~--12/0~-|

Thanks for reading, I hope it helps you out.
If you have and questions or corections lemme know in the comments.
Добавлено: 22.10.2013
Другие материалы по этой песне:
  • Аккорды и текст

Страница создана 04.06.2013
http://primanota.ru/monster-truck/seven-seas-blues-chords.htm
Привет, Гость.
Предлагаем пройти революционный курс по гитаре.
Подарок от PrimaNota.Ru, забирай!