PrimaNota.ru - самый крупный в мире бесплатный архив песенных текстов, аккордов, табулатур и нот


Monster Truck - For The Sun - бас-таба, видео

Регистрация Запомнить меня
Войти через:  Facebook Google Twitter Vk Yandex Mail.ru

Monster Truck - For The Sun - бас-таба, видео

Печатать
Просмотров: 168
Уроки эстрадного вокала в Санкт-Петербурге
-------------------------------------------------------------------------------
                             For the Sun - Monster Truck
-------------------------------------------------------------------------------
Tabbed by: Michael -- SCGM666


Tuning: D Standard (D G C F)

Intro

F|---------------------|------------------|--------------|--------------| x3
C|---------------------|------------------|--------------|--------------|
G|-------------------5-|-7----------------|------2-------|------0-------|
D|---0---------0-/7----|------------------|-3---------3--|-2---------2--|


F|---------------------|------------------|--------------|--------------|----------|----------| x1
C|---------------------|------------------|--------------|--------------|----------|----------|
G|-------------------5-|-7----------------|------2-------|------0-------|----------|----------|
D|---0---------0-/7----|------------------|-3---------3--|-2---------2--|-(2)------|-(2)------|


Verse (x3)

F|---------------------|------------------|--------------|-------------------------|
C|---------------------|------------------|--------------|-------------------------|
G|-----------------10--|------------------|--------------|-10----------------------|
D|--12-----------------|-12-------------10|-12---------12|---------12-------7\-----|

F|---------------------|------------------|--------------|-------------------------|
C|---------------------|------------------|--------------|-------------------------|
G|------------------5--|------------------|--------------|-5-----------------------|
D|--7------------------|-7---------------5|-7-----------7|----------7---------6----|

F|---------------------|------------------|--------------|-------------------------|
C|---------------------|------------------|--------------|-------------------------|
G|---------------------|------------------|--------------|-2-----------------------|
D|--5---------------3--|-5---------------3|-5-----------5|----------5---------3----|

                                                          ______________________1,2| ________________________3|
F|---------------------|------------------|--------------|-------------------------||-------------------------|
C|---------------------|------------------|--------------|-------------------------||-------------------------|
G|---------------------|------------------|--------------|-------------------------||-------------------------|
D|--0------------------|-----------------3|-0-----------0|--7------10---------7----||--0-------0---------3----|


Chorus (x2)


F|---------------------|------------------|--------------|-------------------------|
C|---------------------|------------------|--------------|-------------------------|
G|---------------------|------------------|--------------|-------------------------|
D|--10-----------------|-10-----10-----10-|--5-----------|--5-------5---------3----|

                                                          ________________________1| _______________________2|
F|---------------------|------------------|--------------|-------------------------|-------------------------|
C|---------------------|------------------|--------------|-------------------------|-------------------------|
G|---------------------|------------------|--------------|-------------------------|-------------------------|
D|--0----------3-------|-0---------------3|--0-----------|--0-------0---------3----|-/7------10--------12----|


Verse (x3)

F|---------------------|------------------|--------------|-------------------------|
C|---------------------|------------------|--------------|-------------------------|
G|-----------------10--|------------------|--------------|-10----------------------|
D|--12-----------------|-12\------------10|-12---------12|---------12-------7\-----|

F|---------------------|------------------|--------------|-------------------------|
C|---------------------|------------------|--------------|-------------------------|
G|------------------5--|------------------|--------------|-5-----------------------|
D|--7------------------|-7---------------5|-7-----------7|----------7---------6----|

F|---------------------|------------------|--------------|-------------------------|
C|---------------------|------------------|--------------|-------------------------|
G|---------------------|------------------|--------------|-2-----------------------|
D|--5---------------3--|-5---------------3|-5-----------5|----------5---------3----|

                                                          ______________________1,2| ________________________3|
F|---------------------|------------------|--------------|-------------------------||-------------------------|
C|---------------------|------------------|--------------|-------------------------||-------------------------|
G|---------------------|------------------|--------------|-------------------------||-------------------------|
D|--0------------------|-----------------3|-0-----------0|--7------10---------7----||--0-------0---------3----|


Chorus (x2)

F|---------------------|------------------|--------------|-------------------------|
C|---------------------|------------------|--------------|-------------------------|
G|---------------------|------------------|--------------|-------------------------|
D|--10-----------------|-10-----10-----10-|--5-----------|--5-------5---------3----|


F|---------------------|------------------|--------------|-------------------------|
C|---------------------|------------------|--------------|-------------------------|
G|---------------------|------------------|--------------|-------------------------|
D|--0----------3-------|-0---------------3|--0-----------|--0-------0---------3----|


Chorus (x2)

F|---------------------|------------------|--------------|-------------------------|
C|---------------------|------------------|--------------|-------------------------|
G|---------------------|------------------|--------------|-------------------------|
D|--10--------------10-|-12-----10------7-|--5---------5-|--7-------5---------3----|

                                                          ________________________1| ________________________2|
F|---------------------|------------------|--------------|-------------------------|-------------------------|
C|---------------------|------------------|--------------|-------------------------|-------------------------|
G|---------------------|------------------|--------------|-------------------------|-------------------------|
D|--0----------3-------|--0-------3-------|--0-----3-----|--0-------0---------3----|--0----------------------|


interlude and solo

F|---------------------|------------------|--------------|--------------| x6
C|---------------------|------------------|--------------|--------------|
G|-------------------5-|-7----------------|------2-------|------0-------|
D|---0---------0-/7----|------------------|-3---------3--|-2---------2--|


Chorus (x2)

F|---------------------|------------------|--------------|-------------------------|
C|---------------------|------------------|--------------|-------------------------|
G|---------------------|------------------|--------------|-------------------------|
D|--10-----------------|-10-----10-----10-|--5-----------|--5-------5---------3----|


F|---------------------|------------------|--------------|-------------------------|
C|---------------------|------------------|--------------|-------------------------|
G|---------------------|------------------|--------------|-------------------------|
D|--0----------3-------|-0---------------3|--0-----------|--0-------0---------3----|


Chorus (x2)

F|---------------------|------------------|--------------|-------------------------|
C|---------------------|------------------|--------------|-------------------------|
G|---------------------|------------------|--------------|-------------------------|
D|--10--------------10-|-12-----10------7-|--5---------5-|--7-------5---------3----|

                                                          ________________________1| ________________________2|
F|---------------------|------------------|--------------|-------------------------|-------------------------|
C|---------------------|------------------|--------------|-------------------------|-------------------------|
G|---------------------|------------------|--------------|-------------------------|-------------------------|
D|--0----------3-------|--0-------3-------|--0-----3-----|--0-------0---------3----|--0----------------------|


Outro

F|---------------------|------------------|--------------|--------------| x11
C|---------------------|------------------|--------------|--------------|
G|-------------------5-|-7----------------|------2-------|------0-------|
D|---0---------0-/7----|------------------|-3---------3--|-2---------2--|

Much slower, getting even slower :

F|---------------------|------------------|--------------|--------------|----------|----------|
C|---------------------|------------------|--------------|--------------|----------|----------|
G|-------------------5-|-7----------------|------2-------|------0-------|----------|----------|
D|---0---------0-/7----|------------------|-3---------3--|-2---------2~~|~(2)~~~~~~|~(2)~~~~~~|


| /  slide up
| \  slide down
| h  hammer-on
| p  pull-off
| ~  vibrato
| +  harmonic
| x  Mute note
===============================================================================
Добавлено: 18.07.2015
Вам также может быть интересно:
Другие материалы по этой песне:
  • Аккорды и текст

Страница создана 18.07.2015
http://primanota.ru/monster-truck/for-sun-chords.htm
Привет, Гость.
Предлагаем пройти революционный курс по гитаре.
Подарок от PrimaNota.Ru, забирай!