PrimaNota.ru - самый крупный в мире бесплатный архив песенных текстов, аккордов, табулатур и нот


Monster Truck - Dont Tell Me How To Live - таба, видео

Регистрация Запомнить меня
Войти через:  Facebook Google Twitter Vk Yandex Mail.ru

Monster Truck - Dont Tell Me How To Live - таба, видео

Печатать
Просмотров: 127
I'll start off by saying I don't know the full song. I don't know the solo and I'm unsure about the chorus.
Also I'm just gonna give you guys the riffs, cause im lazy and don't want to tab the whole
song out. 

Intro + verses

d|--------------------------------------|
A|--------------------------------------|
F|--------------------------------------|  x4
C|------------5-------------------------|
G|--------5h7-----------7-----7-----7---|
D|----5h7----------0-0-0--0-0---0-0---0-|
                   x x x  x x   x x   x


d|-----------------------------------------------|
A|-----------------------------------------------|
F|-----------------------------------------------|
C|-----------------------------------------------|
G|-------5h7--7~--5---5---5----------------------|
D|---5h7------------7---7---7--5--7--5--3--0~----|

Chorus 
The licks in the chorus is most likely wrong but thats about as close as i can get. If you can figure them out 
please post them in the comments :)

d|----------------------------------------------------------|
A|----------------------------------------------------------|
F|-------------------------------------12-14^-14^ 12--------|
C|-------------------------------12-14---------------14~----|
G|-------------5~--5---5-7~----14---------------------------|
D|--3~--3h5/7~-------7--------------------------------------|


d|--------------------------------------------------------------|
A|--------------------------------------------------------------|
F|----------------------------------12-14-12-14-16p14p12--------|
C|-------------------------------14----------------------14~----|
G|-------------5~--5--------------------------------------------|
D|--3~--3h5/7~-------7--3--0~-----------------------------------|


d|------------------------------------------------------|
A|-------------------------------------12--15^----------|
F|-------------------------------12-14---------14^------|
C|-----------------------------14------------------14^--|
G|-------------5~--5---5-7~-----------------------------|
D|--3~--3h5/7~-------7----------------------------------|


d|-----------------------------------------------|
A|-----------------------------------------------|
F|-----------------------------------------------|
C|-----------------------------------------------|
G|-------------5~-----7------7-----7-------------|
D|--3~--3h5/7~---------0-0-0---0-0---0-0---------|

Добавлено: 16.05.2016
Другие материалы по этой песне:
  • Аккорды и текст

Страница создана 16.05.2016
http://primanota.ru/monster-truck/dont-tell-me-how-to-live-chords.htm
Привет, Гость.
Предлагаем пройти революционный курс по гитаре.
Подарок от PrimaNota.Ru, забирай!