PrimaNota.ru - самый крупный в мире бесплатный архив песенных текстов, аккордов, табулатур и нот


Monster Magnet - Nod Scene - аккорды и текст, таба, видео

Регистрация Запомнить меня
Войти через:  Facebook Google Twitter Vk Yandex Mail.ru

Monster Magnet - Nod Scene - аккорды и текст, таба, видео

Печатать
Просмотров: 139
Авторы: Dave Wyndorf, John McBain

Nod Scene
Monster Magnet
		   Monster Magnet - Nod Scene (spine of god)
~~~~~~~~~~~~~~~~~~~~~~~~~~~~~~~~~~~~~~~~~

Looks like these guys can only write great songs, but ofcourse
that's because of the drugs... **** all who say drugs are bad...
**** you.. smoke weed, get stoned!

Now the tab below isn't very exact for what timing concerns, but it
is the right way to play it! (i think) so listen to the cd for timing

We saw them live at the (B)Low lands festival in holland....THEY RULED
Dave we get your message.. we love you
---------------------------------------------------------------------
After they take some good sucks from a pipe, the guitar starts with:

Intro:
e:-------|             |------------------
b:----5--| repeat this |---5--5-----5--x--
g:----6--| a couple of |---6--6--6--6--x--
d:-6--6--| times       |-6-6--6--6--6--x--
a:-4-----|             |-4-------4-----x--
E:-4-----|             |-4----------------

This next part is played twice:  (part A)

e ------------------------------------------------------
b -----------------------------------9--9--9------------
g --11-11-----9h11--9----------------9--9--9------------
d --11-11---9-9h11--9-11p9h11--11-11-11-11-11-----------
a ---9--9---9-9-----9-11p9h11--11-11-^ ^ ^--------------
E ---------------------9--------9--9-     --------------
                                ^  ^  listen to the cd for the strum...
                                      (strum more than it reads)
e-------------------------------------------------------
b -------------9h11--9--------------9--9--9-------------
g -11-11-11--9-9h11--9--------------9--9--9-------------
d -11-11-11--9-9-----9--9h11--11-11-11-11-11------------
a -9---9--9-------------9h11--11-11-^ ^ ^---------------
E ----------------------9------9--9-     ---------------
                             ^  ^ again listen for strum

e ------------------------------------------------>
b ------------------------------------------------>
g -------------------------11-11-11-11-11-11-11--->
d -4-4-4-4-4-4-4-4-4-4-4-4-11-11-11-11-11-11-11--->
a -4-4-4-4-4-4-4-4-4-4-4-4--9--9--9--9--9--9--9--->
E -2-2-2-2-2-2-2-2-2-2-2-2------------------------>
   ^ ^ ^ ^ ^ ^ ^ ^ ^ ^ ^ ^aprox 16 x

e >-------------------------------------
b >-------------------------------------
g >-11-11-11\9-9-9-9-9-11\9-9-9-9-9-9---
d >-11-11-11\9-9-9-9-9-11\9-9-9-9-9-9---
a >--9--9--9\7-7-7-7-7--9\7-7-7-7-7-7---
E >-------------------------------------

okay now for the really cool part kick in your wah wah

e --------------------------------------------------------
b --------------------------------------------------------
g -4--/6-6-6-6-6-6--4--/6-6-6-6-6-6--4--/6-6-6-6-6-6-6-6--
d -4--/6-6-6-6-6-6--4--/6-6-6-6-6-6--4--/6-6-6-6-6-6-6-6-7
a -2--/4-4-4-4-4-4--2--/4-4-4-4-4-4--2--/4-4-4-4-4-4-4-4-7
E -------------------------------------------------------5
                   okay this is where the lyrics start  ^

 then it goes into the more relaxed part that is just like the
 beginning only with some slight variations (part A)
 That part keeps being played until he sings:

 crash down the good looking man

 The following part is played:  (part B)
e ----------------------------------------------------------------------
b ----------------------------------------------------------------------
g -4--/6-6-6-6-6-6--4--/6-6-6-6-6-6--4--/6-6-6-6-6-6-6-6----------------
d -4--/6-6-6-6-6-6--4--/6-6-6-6-6-6--4--/6-6-6-6-6-6-6-6-7-7-7-7-7(7)----
a -2--/4-4-4-4-4-4--2--/4-4-4-4-4-4--2--/4-4-4-4-4-4-4-4-7-7-7-7-7(7)----
E -------------------------------------------------------5-5-5-5-5(5)----
He plays the above part two times only the second time he let's    ^     ring
                                                                this part
during the following lyrics:

15 miles to cop on a stingrays?     (now part A is being repeated)
Boys will gonna ride tonight
Goofballs in the 70's nipples
Gota get our heads just right
Sit me in the lap of the god's babe
Cover me with skin and hair

Play Part B (lots a wah wah) (with solo over it)
    -lots a nois

Then go into part A again

Bought another copy of zoso
Seeds were bustin' up the spine
I think I wet my pants doing whiphits
Not too many but's just find
Sit me in the lap of the god's babe
Cover me with skin and hair
Ride a number one on the home train
Screw you if you think i can't...........(part B)........SMOKE   (smoke dope  get high)

Contact us if you smoke
Cazy, Baz


                         complete lyrics:
                         -------------------
                         Bought another copy of fragile
                         Seeds were bustin' up the spine
                         I think i cracked my skull doin' airplanes
                         Not too many but__it's just fine
                         Pussy scratching sniffing a playboy
                         crash down the good looking man

                         15 miles to cop on a stingrays
                         Boys will gonna ride tonight
                         Goofballs in the 70's nipples
                         Gotta get our heads just right
                         Sit me in the lap of the god's babe
                         Cover me with skin and hair

                         Bought another copy of zoso
                         Seeds were bustin' up the spine
                         I think i wet my pants doin' whiphits
                         Not too many but__it's just fine
                         Sit me in the lap of the god's babe
                         Cover me with skin and hair
                         Ride a number one on the home train
                         SCREW YOU IF YOU THINK I CAN'T................SMOKE


I'm not sure about some of these lyrics! so if you see any errors let us know


SIN's A GOOD MAN's BROTHER - Dave!

e-mail 9250128@bn.fnt.hvu.nl     
Добавлено: 14.07.2013
Другие материалы по этой песне:
  • Аккорды и текст

Страница создана 27.03.2012
http://primanota.ru/monster-magnet/nod-scene-chords.htm
Привет, Гость.
Предлагаем пройти революционный курс по гитаре.
Подарок от PrimaNota.Ru, забирай!