PrimaNota.ru - самый крупный в мире бесплатный архив песенных текстов, аккордов, табулатур и нот


Monster Magnet - Look To You Orb For Warning - текст песни, таба, видео

Регистрация Запомнить меня
Войти через:  Facebook Google Twitter Vk Yandex Mail.ru

Monster Magnet - Look To You Orb For Warning - текст песни, таба, видео

Печатать
Просмотров: 53
Monster Magnet
Look To Your Orb For The Warning
Key of Ebm
Tabbed by Ted




Intro/Chorus   
E|-------------------------------------------| Overdubs add
B|-------------------------------------------| Octave notes on
G|-------------------------------------------| G string
D|-------------------------------------------|
A|-5---5------5-4---4\2---2------2p0-0h2-----| 
E|---0----0-0-----0-----0----0-0---------0-0-|

E|-------------------------------------------|
B|-------------------------------------------|
G|-------------------------------------------|
D|-------------------------------------------|
A|/5---5------5-4/5-4/5-4\2---2------2-0h2---|
E|---0----0-0---------------0----0-0-------0-|

E|---------------------------------------------|
B|---------------------------------------------|
G|---------------------------------------------|
D|---------------------------------------------|
A|-/5---5------5-5\4---4/7---7------7/8-8\7-7\-|
E|----0----0-0-------0-----0----0-0------------|

E|-------------------------------------------|| Repeats vary
B|-------------------------------------------|| the way the "B" 
G|-------------------------------------------|| to "A" note is 
D|-------------------------------------------|| played (pull off
A|-5---5------5-4/5-4/5-4\2---2------2-0h2---|| or picked) throughout.
E|---0----0-0---------------0----0-0-------0-||
 




Verse 
E|----------------------------||
B|---------------------3-3-3--||
G|---------------------2-2-2--||
D|-2----2----2-2-2-2-2-0-0-0--||
A|-2----2----2-2-2-2-2--------||
E|-0----0----0-0-0-0-0--------||





Bridge
E|----------------------------||
B|----------------------------||
G|-7/9-9-7-9-9-9--------------||
D|-7/9-9-7-9-9-9-7--7--5-5--5-||
A|-5/7-7-5-7-7-7-7--7--5-5--5-||
E|---------------5--5--3-3--3-||




Outro Fig 1
E|------------------------------||
B|------------------------------||
G|-7/9--9-9-9-9-9-11--7--9-9--9-||
D|-7/9--9-9-9-9-9-11--7--9-9--9-||
A|-5/7--7-7-7-7-7-9---5--7-7--7-||
E|------------------------------||



Outro Fig 2
E|---------------------------------------------||
B|---------------------------------------------||
G|-7/9--9-9-9-9-9--10--10-10-10-10-10-10-10-10-||
D|-7/9--9-9-9-9-9--10--10-10-10-10-10-10-10-10-||
A|-5/7--7-7-7-7-7--8---8--8--8--8--8--8--8--8--||
E|---------------------------------------------||



Outro Fig 3
E|------------------------------||
B|------------------------------||
G|-7/9--9-9-9-9-9--7--5--5-5--5-||
D|-7/9--9-9-9-9-9--7--5--5-5--5-||
A|-5/7--7-7-7-7-7--5--3--3-3--3-||
E|------------------------------||




Outro Fig 4
E|--------------------------||
B|--------------------------||
G|-9-9-9--9-9--9-9--9-9-9-9-||
D|-9-9-9--9-9--9-9--9-9-9-9-||
A|-7-7-7--7-7--7-7--7-7-7-7-||
E|--------------------------||
Добавлено: 18.06.2016
Другие материалы по этой песне:
  • Аккорды и текст

Страница создана 06.10.2014
http://primanota.ru/monster-magnet/look-to-you-orb-for-warning-chords.htm
Привет, Гость.
Предлагаем пройти революционный курс по гитаре.
Подарок от PrimaNota.Ru, забирай!