PrimaNota.ru - самый крупный в мире бесплатный архив песенных текстов, аккордов, табулатур и нот


Monster Magnet - Heads Explode - текст песни, таба, видео

Регистрация Запомнить меня
Войти через:  Facebook Google Twitter Vk Yandex Mail.ru

Monster Magnet - Heads Explode - текст песни, таба, видео

Печатать
Просмотров: 156
Авторы музыки: Dave Wyndorf
Авторы текста: Dave Wyndorf
   Artist: Monster Magnet
    Title: Heads Explode
    Album: God says no
Tabbed by: Marko
   E-Mail: Metalmarko@addcom.de

Key:
b  = Bend
r  = Release bend
h  = Hammer
p  = Pull off
/  = Slide up
\  = Slide down
pm = Palm mute
ph = phaser

Tune 1 full step down: D G C F A d

Verse 1:
	play this 3 times     then   
d|------------------------------|----------------------------------------|
A|------------------------------|----------------------------------------|
F|------------------------------|----------------------------------------|
C|------------------------------|----------------------------------------|
G|------------------------------|--0--3p0-5-0--3p0-5--0--3p0-5-0--3p0-5--|
D|-0--3-5-0--3-5-0--3-5-0--3-5--|----------------------------------------|

Chorus:

d|-----------------------------------------------------------------------|
A|-----------------------------------------------------------------------|
F|-----------------------------------------------------------------------|
C|-2-2-2-2-2-2-5-5-5-5-5-5-7-7-7-7-7-7-10-10-10-10-10-10-----------------|
G|-2-2-2-2-2-2-5-5-5-5-5-5-7-7-7-7-7-7-10-10-10-10-10-10-----------------| 2x
D|-0-0-0-0-0-0-3-3-3-3-3-3-5-5-5-5-5-5--8--8--8--8--8--8-----------------|

Verse 2: with phaser
       play this 3 times      then     ph                  ph        ph
d|-----------------------------|-----------------------------------------|
A|-----------------------------|-----------------------------------------|
F|-----------------------------|-----------------------------------------|
C|-----------------------------|-----------------------------------------|
G|---/7-5---/7-5---/7-5---/7-5-|-0-/12-10-0--/12-10-0--/12-10-0--/12-10--|
D|-0------0------0------0------|-----------------------------------------|
				       ph                  ph        ph
Chorus:

d|-----------------------------------------------------------------------|
A|-----------------------------------------------------------------------|
F|-----------------------------------------------------------------------|
C|-2-2-2-2-2-2-5-5-5-5-5-5-7-7-7-7-7-7-10-10-10-10-10-10-----------------|  
G|-2-2-2-2-2-2-5-5-5-5-5-5-7-7-7-7-7-7-10-10-10-10-10-10-----------------| 2x
D|-0-0-0-0-0-0-3-3-3-3-3-3-5-5-5-5-5-5--8--8--8--8--8--8-----------------| 

d|-----------------------------------------------------------------------|
A|-----------------------------------------------------------------------|
F|-----------------------------------------------------------------------|
C|-14-14-14-14-14-14-12-12-12-12-12-12-11-11-11-11-11-11-10-10-10-10-10--| 
G|-14-14-14-14-14-14-12-12-12-12-12-12-11-11-11-11-11-11-10-10-10-10-10--| 2x
D|-12-12-12-12-12-12-10-10-10-10-10-10--9--9--9--9--9--9--8--8--8--8--8--| 

Solo 1: 

d|-----------------------------------------------------------------------|
A|-----------------------------------------------------------------------|
F|-----------------------------------------------------------------------|
C|-----------------------------------------------------------------------|
G|----7-5-7-5h7p5---------------7-5-7-5h7p5------------------------------|
D|-0--------------7-5-7-7-7--0--------------7-5-7-7-7-0------------------|

d|-----------------------------------------------------------------------|
A|-----------------------------------------------------------------------|
F|-----------------------------------------------------------------------|
C|-----------------------------------------------------------------------|
G|----7-9-9-9h10p9-7-5-7-7-7----7-5-7-5h7p5------------------------------|
D|-0-------------------------0--------------7-5-7-7-7-0------------------|

    ph|----------|
d|-----------------------------------------------------------------------|
A|-----------------------------------------------------------------------|
F|-----------------------------------------------------------------------|
C|-2--14-14-14-14--------------------------------------------------------|
G|-2--14-14-14-14--------------------------------------------------------| 8x
D|-0--12-12-12-12--------------------------------------------------------|

Verse 3:
       play this 4 times	then       play this 2 times
d|-------------------------------|---------------------------------------|
A|-------------------------------|---------------------------------------|
F|-------------------------------|---------------------------------------|
C|-------------------------------|---------------------------------------|
G|-------------------------------|---0-0-0-0-3-0-5-0-0-0-0-0-3-0-5-0-----|
D|-0-0-0-0-3-0-5-0-0-0-0-0-3-0-5-|---------------------------------------|

Chorus before solo:

d|-----------------------------------------------------------------------|
A|-----------------------------------------------------------------------|
F|-----------------------------------------------------------------------|
C|-2-2-2-2-2-2-5-5-5-5-5-5-7-7-7-7-7-7-10-10-10-10-10-10-----------------|  
G|-2-2-2-2-2-2-5-5-5-5-5-5-7-7-7-7-7-7-10-10-10-10-10-10-----------------| 2x
D|-0-0-0-0-0-0-3-3-3-3-3-3-5-5-5-5-5-5--8--8--8--8--8--8-----------------| 

d|-----------------------------------------------------------------------|
A|-----------------------------------------------------------------------|
F|-----------------------------------------------------------------------|
C|-14-14-14-14-14-14-12-12-12-12-12-12-11-11-11-11-11-11-10-10-10-10-10--| play the last
G|-14-14-14-14-14-14-12-12-12-12-12-12-11-11-11-11-11-11-10-10-10-10-10--| chord until 
D|-12-12-12-12-12-12-10-10-10-10-10-10--9--9--9--9--9--9--8--8--8--8--8--| the solo begins

Solo 2: 

d|-----------------------------------------------------------------------|
A|-----------------------------------------------------------------------|
F|-----------------------------------------------------------------------|
C|-----------------------------------------------------------------------|
G|-8-7h8p7-7-7-7-7-7-8-7h8p7-7-7-7-7-7-11-11-8-8\7-7-7-5-5h7p5-----------|
D|-------------------------------------------------------------7-5h7-7-7-|

d|-----------------------------------------------------------------------|
A|-----------------------------------------------------------------------|
F|-----------------------------------------------------------------------|
C|-----------------------------------------------------------------------|
G|-8-7h8p7-7-7-7-7-7-8-7h8p7-7-7-7-7-7-11-11-8-8\7-7-7-5-5h7p5-----------|
D|-------------------------------------------------------------7-5h7-7-7-|

d|-----------------------------------------------------------------------|
A|-----------------------------------------------------------------------|
F|-----------------------------------------------------------------------|
C|-----------------------------------------------------------------------|
G|-8-7h8p7-7-7-7-7-7-11-11-8-8-7-7-5-5-3-3-------------7-----------------|
D|-----------------------------------------7-7-5-5-3-3-------------------|

Rythm over Solo 2:
    ph|----------|
d|-----------------------------------------------------------------------|
A|-----------------------------------------------------------------------|
F|-----------------------------------------------------------------------|
C|-2--14-14-14-14--------------------------------------------------------|
G|-2--14-14-14-14--------------------------------------------------------| 9x
D|-0--12-12-12-12--------------------------------------------------------|

Добавлено: 25.03.2012
Другие материалы по этой песне:
  • Аккорды и текст

Страница создана 25.03.2012
http://primanota.ru/monster-magnet/heads-explode-chords.htm
Привет, Гость.
Предлагаем пройти революционный курс по гитаре.
Подарок от PrimaNota.Ru, забирай!