PrimaNota.ru - самый крупный в мире бесплатный архив песенных текстов, аккордов, табулатур и нот


Monster Magnet - Cyclops Revolution - текст песни, таба, видео

Регистрация Запомнить меня
Войти через:  Facebook Google Twitter Vk Yandex Mail.ru

Monster Magnet - Cyclops Revolution - текст песни, таба, видео

Печатать
Просмотров: 126
CYCLOPS REVOLUTION

4/4 time
in the key of Em
tune down 1/2 step

INTRO/VERSE:
 (clean w/reverb & slight delay)

FIG 1                                             *
     G5           D5 E5              G5       *   A5  E5
e|----------------------------------------------------------------------| Play once
B|----------------------------------------------------------------------| 
G|o--12-------12--7--9-------9-------12-------12--14--9----- 9---------o| 
D|o--12----12-12--7--9-----9---9-----12----12-12--14--9----9---9---9---o|
A|---10----10-10--5--7---7-------7---10----10-10--12--7--7-------7------|
E|----------------------------------------------------------------------|
                                               *Upstroke when accented


FIG 2                                              *
     G5           D5 E5               G5        *  A5  E5
e|-----------------------------------------------------------------------| Play like this until
B|-----------------------------------------------------------------------| Vocals begin with
G|o--12-------12--7--9-------9--------12-------12--14--9----- 9---------o| slight variations
D|o--12----12-12--7--9-----9---9---9--12----12-12--14--9----9---9---9---o|
A|---10----10-10--5--7---7-------7----10----10-10--12--7--7-------7------|
E|-----------------------------------------------------------------------|
                                               *Upstroke when accented


Fig 3                                             *
     G5           D5 E5               G5       *  A5  E5
e|----------------------------------------------------------------------| Begins with "As the
B|----------------------------------------------------------------------| 9 heads bleed".
G|o--12-------12--7--9-------9---9-9--12-------12--14--9----- 9---9-9--o| Becomes more agressive
D|o--12----12-12--7--9-----9-9---9-9--12----12-12--14--9----9-9---9-9--o| after 2 bars.
A|---10----10-10--5--7---7-----7------10----10-10--12--7--7-----7-------|
E|----------------------------------------------------------------------|
                                               *Upstroke when accented

PRE-CHORUS
e|----------------------------------------------------|
B|----------------------------------------------------|
G|----------------------------------------------------|
D|-\-4--4--4--4--4--4--4--4--4--4--4--4--4--4--4--4---|
A|-\-2--2--2--2--2--2--2--2--2--2--2--2--2--2--2--2---|
E|----------------------------------------------------|



CHORUS FIG 1
e|----------------------------------------------------| 
B|----------------------------------------------------| 
G|o--------------------------------------------------o|
D|o--9-9----9-9--9--9--9--5--5--/9----9/--5----5/----o|
A|---7-7----7-7--7--7--7--3--3--/7----7/--3----3/-----|
E|----------------------------------------------------|



CHORUS FIG 2
e|--------------------------------------------------|
B|--------------------------------------------------|
G|--------------------------------------------------|
D|-9--9--9----9-9--9--9-----------------------------|
A|-7--7--7----7-7--7--7--7--7--7--\5===============-|
E|-----------------------5--5--5--\3===============-|

Verse FIG 3

Chorus FIG 1


OUTRO RIFF
e|-----------------------------|
B|-----------------------------|
G|o---------------------------o|
D|o--9--9--9--9--9--9--9--5/--o|
A|---7--7--7--7--7--7--7--3/---|
E|-----------------------------|
Добавлено: 31.10.2013
Другие материалы по этой песне:
  • Аккорды и текст

Страница создана 09.06.2012
http://primanota.ru/monster-magnet/cyclops-revolution-chords.htm
Привет, Гость.
Предлагаем пройти революционный курс по гитаре.
Подарок от PrimaNota.Ru, забирай!