PrimaNota.ru - самый крупный в мире бесплатный архив песенных текстов, аккордов, табулатур и нот


Monsoon - Ever So Lonely - таба, видео

Регистрация Запомнить меня
Войти через:  Facebook Google Twitter Vk Yandex Mail.ru

Monsoon - Ever So Lonely - таба, видео

Печатать
Просмотров: 87
-------------------------------------------------------------------------------
                             Ever So Lonely - Monsoon
-------------------------------------------------------------------------------
Tabbed by: Rich F
E-mail: rfairchild@blueyonder.co.uk

This is my first tab. Hope it's OK! I could not find an existing tab for this song
So I developed it from the Indian Blues pentatonic Scale in A minor.

Tuning: Standard

Section A

e|---------------------------------------------------------------------------|
B|----------------------------------------------------------         --------|
G|-----7 6-------------------7 -6-----------------------------------   ------| x 2
D|----------7 5 5-----5 7-------------7 5 5 5 ------------------------- -----|
A|----------------7----------------------------7 5 4-------------------------|
E|---------------------------------------------------------------------------|

e|---------------------------------------------------------------------------|
B|---------------------------------------------------------------------------|
G|---------------------------------------------------------------------------|
D|------------------5/4/5---------------5 7/5/7------------------------------|
A|-----4 5 7  4 5 --------------4 5 7 ---------------------------------------|
E|---------------------------------------------------------------------------|

Repeat section A as many times as you feel, then move on to the bridge, as follows:

e|---------------------------------------------------------------------------|
B|---------------------------------------------------------------------------|
G|--------------------7 6---------------------7 6----------     -------------|
D|-----9 9 9 9 9----------------9 9 9 9 9------------------------------------|
A|---------------------------------------------------------------------------|
E|---------------------------------------------------------------------------|

Section B: shifting up a key!


e|---------------------------------------------------------------------------|
B|----------------------8/7/8------------------8 10/8/10---------------------|
G|--------6 7 9 6 7-----------------6 7 9-----------------------   ----------| x 2  A
D|---------------------------------------------------------------------------|
A|---------------------------------------------------------------------------|
E|---------------------------------------------------------------------------|

e|-------10 9-----------------------10 9-------------------------- ----------|
B|--------------10 8 8-----8 10------------10 8 8-8----------     -----------|
G|----------------------9---------------------------         9 7 6--- -------| then do A again

D|---------------------------------------------------------------------------|
A|---------------------------------------------------------------------------|
E|---------------------------------------------------------------------------|


Repeat section B as many times as you feel. You could even repeat section A and section B over
And over! Eventually finish by improvising a solo around the Indian Blues Scale in A Minor 
Pentatonic, and then finish the whole thing by strumming an A7 chord....

I play this song on my Vimeo clip....


Developed from the Indian Blues pentatonic Scale in A minor which follows below:


e|----------------------------------------------------9 10 12-----------------|
B|----------------------------------------------8 10--------------------------|
G|--------------------------------6 7-----9-----------------------------------|
D|-------------------------5 7------------------------------------------------|
A|---------------4 5 7--------------------------------------------------------|
E|--------5-------------------------------------------------------------------|

e|---------------------------------------------------------------------------|
B|---------------------------------------------------------------------------|
G|---------------------------------------------------------------------------|
D|---------------------------------------------------------------------------|
A|---------------------------------------------------------------------------|
E|---------------------------------------------------------------------------|

e|---------------------------------------------------------------------------|
B|---------------------------------------------------------------------------|
G|---------------------------------------------------------------------------|
D|---------------------------------------------------------------------------|
A|---------------------------------------------------------------------------|
E|---------------------------------------------------------------------------|


************************************

| /   slide up
| \   slide down
| h   hammer-on
| p   pull-off
| ~   vibrato
| +   harmonic
| x   Mute note
| b   Bend
| pb  Pre-bend
| br  Bend release
| pbr Pre-bend release
| brb Bend release bend

************************************
Добавлено: 06.06.2016
Другие материалы по этой песне:
  • Аккорды и текст

Страница создана 06.06.2016
http://primanota.ru/monsoon/ever-so-lonely-chords.htm
Привет, Гость.
Предлагаем пройти революционный курс по гитаре.
Подарок от PrimaNota.Ru, забирай!