PrimaNota.ru - самый крупный в мире бесплатный архив песенных текстов, аккордов, табулатур и нот


Monochrome Set - The Monochrome Set I Presume - таба, видео

Регистрация Запомнить меня
Войти через:  Facebook Google Twitter Vk Yandex Mail.ru

Monochrome Set - The Monochrome Set I Presume - таба, видео

Печатать
Просмотров: 99
-------------------------------------------------------------------------------
                             The Monochrome Set (I Presume) - The Monochrome Set
-------------------------------------------------------------------------------
Tabbed by:Crytearia
E-mail:

Tuning:

[Guitar 1]

e|-7---------------------------------------|---------------------------------|
B|---8p7---7----------8p7----7-------------|---------------------------------|
G|-------9---9p8----8-----9----9p8---------|---------------------------------|
D|---------------11----------------11-[x4]-|---9-8-7-----------9-8-7----[x2]-|
A|-----------------------------------------|-7-------10-7----7-------10------|
E|-----------------------------------------|---------------------------------|

[Guitar 2]
e|---------------------------------------|-----------------------------------|
B|---------------------------------------|-----------------------------------|
G|----------------------6p8p9------------|-----------------------------------|
D|--------------------9-------9-7-9-[x2]-|-9-7-7-7--9-7-7-7--9-12-12----[x2]-|
A|---------------------------------------|-7-5-5-5--7-5-5-5--7-10-10--10-----|
E|---------------------------------------|----------------------------8------|



************************************

| /   slide up
| \   slide down
| h   hammer-on
| p   pull-off
| ~   vibrato
| +   harmonic
| x   Mute note
| b   Bend
| pb  Pre-bend
| br  Bend release
| pbr Pre-bend release
| brb Bend release bend

************************************
Добавлено: 17.12.2015
Вам также может быть интересно:
Другие материалы по этой песне:
  • Аккорды и текст

Страница создана 17.12.2015
http://primanota.ru/monochrome-set/monochrome-set-i-presume-chords.htm
Привет, Гость.
Предлагаем пройти революционный курс по гитаре.
Подарок от PrimaNota.Ru, забирай!