PrimaNota.ru - самый крупный в мире бесплатный архив песенных текстов, аккордов, табулатур и нот


Monkeysoop - Sharp As A Scythe - таба, видео

Регистрация Запомнить меня
Войти через:  Facebook Google Twitter Vk Yandex Mail.ru

Monkeysoop - Sharp As A Scythe - таба, видео

Печатать
Просмотров: 84
Уроки эстрадного вокала в Санкт-Петербурге
Band - Monkeysoop
Song - Sharp as a Scythe
CD - Experimetal II

Riff 1 x8
e--------------------------------------------------------------|
b--------------------------------------------------------------|
g--------------------------------------------------------------|
d--------------------5p3p0-------------------------------------|
a--5p3p0-3p2p0---2p0-------5p3p0-3p2p0---2p0-------------------|
e--------------3-----------------------3-----5p3p0-------------|


Riff 2 x4
e----------------|
b----------------|
g----------------|
d----------------|
a-----2p0--------|
e---3-----1------|


Riff 3???

Riff 4 x4
e-----------------------------------------------------------|
b-----------------------------------------------------------|
g--10----22-----24------22------10-----22-----24-----19-----|
d-----x4-----x4-----x4------x4------x4-----x4-----x4----x4--|
a--8-----20-----22------20------8------20-----22-----17-----|

e-----------------------------------------------------------|
b-----------------------------------------------------------|
g--10----22-----24------22------10-----22-----24-----18-----|
d-----x4-----x4-----x4------x4------x4-----x4-----x4----x4--|
a--8-----20-----22------20------8------20-----22-----16-----|


Riff 5 x2
e------------------------------------------------------------------|
b------------------------------------------------------------------|
g------------------------------------------------------------------|
d-5p3p0-3p2p0-----5p3p0-3p2p0-----7p5p0-5p3p0------7p5p0-5p3p0-----|
a-------------3p0------------3p0--------------5p0--------------3p0-|
e------------------------------------------------------------------|

e-----------------------------------------------------------------|
b-----------------------------------------------------------------|
g-----------------------------------------------------------------|
d-8p7p0-7p5p0-----8p7p0-7p5p0-----7p5p0-5p3p0------p5p0-5p3p0-----|
a-------------7p0-------------7p0-------------5p0-------------5p0-|
e-----------------------------------------------------------------|

e---------------------------------|
b---------------------------------|
g---------------------------------|
d-5p3p0-3p2p0-----5p3p0-3p2p0-----|
a-------------3p0------------3p0--|
e---------------------------------|

Rest of song - I have no idea!!
Добавлено: 29.10.2013
Другие материалы по этой песне:
  • Аккорды и текст

Страница создана 29.10.2013
http://primanota.ru/monkeysoop/sharp-as-a-scythe-chords.htm
Привет, Гость.
Предлагаем пройти революционный курс по гитаре.
Подарок от PrimaNota.Ru, забирай!