PrimaNota.ru - самый крупный в мире бесплатный архив песенных текстов, аккордов, табулатур и нот


Monkey Steals The Peach - Guitar Hero - таба, видео

Регистрация Запомнить меня
Войти через:  Facebook Google Twitter Vk Yandex Mail.ru

Monkey Steals The Peach - Guitar Hero - таба, видео

Печатать
Просмотров: 195
Уроки эстрадного вокала в Санкт-Петербурге
i will post the rest of the song when i learn more!


e-------------------------------------------------------------------| repeat
b-------------------------------------------------------------------| 2x
g-------------------------------------------------------------------|
D-------------------------------------------------------------------|
A-0-0-0-0-0-3----3--5------0-0-0-0-0-3---3--------------------------|
E-------------1-------3----------------1---5-5----------------------|

e-------------------------------------------------------------------|
b-------------------------------------------------------------------|
g-------------------------------------------------------------------|
D-------------------------------------------------------------------|
A-------------------------------------0-0-0-0-0-3---3--5------------|
E-1111111111111111-3333333333333333---------------1-------3---------|

e--------------------------------------------------------------------|
b--------------------------------------------------------------------|
g--------------------------------------------------------------------|
D--------------------------------------------------------------------|
A-0-0-0-0-0----3-----------------0-0-0-0-0-3------------3----------3-|
E------------1----5-5-------------------------3-3-3-3-3---1-1-1-1-1--|

e--------------------------------------------------------------------|
b--------------------------------------------------------------------|
g--------------------------------------------------------------------|
D--------------------------------------------------------------------|
A-3-5-3----6-5-3-----------------------------------------------------|
E-------10-----------------------------------------------------------|

thats all i know for now but i will post the rest of the song when i get the hang of it and learn it
Добавлено: 23.04.2012
Вам также может быть интересно:
Другие материалы по этой песне:

Страница создана 25.02.2012
http://primanota.ru/monkey-steals-the-peach/guitar-hero-chords.htm
Привет, Гость.
Предлагаем пройти революционный курс по гитаре.
Подарок от PrimaNota.Ru, забирай!