PrimaNota.ru - самый крупный в мире бесплатный архив песенных текстов, аккордов, табулатур и нот


Monkey Majik - Long Shot Penny - таба, видео

Регистрация Запомнить меня
Войти через:  Facebook Google Twitter Vk Yandex Mail.ru

Monkey Majik - Long Shot Penny - таба, видео

Печатать
Просмотров: 170
-------------------------------------------------------------------------------
                             LONG SHOT PENNY - Monkey Majik
-------------------------------------------------------------------------------

Album: Sorahamarude/Sora Wa Marude
Tabbed by: GuetaMinute
Email: guetaminute@hotmail.com

Tuning: Standard
Just the intro and distorted riff, don't know anything else on the song lol, sorry

e|-------------------------------------------------------|
B|-------------------------------------------------------|
G|-----------------------------------9---7---6--4--2--4--|
D|-9--11---9--11--9---12--11---------0---0---0--0--0--0--|
A|-0--0----0--0---0---0---0------------------------------|
E|-------------------------------------------------------|

Keep strumming those 2-string open A and open D chords repeatedly in a consistent pace,
like the song.

Other riff:
e|-----------------------------------------------------------------------------------|
B|------------10-9------------10-9---------------------------------------------------|
G|--6--7-6----------6--7-6-----------------------------------------------------------|
D|-----------------------------------------------------------------------------------|
A|-----------------------------------------------------------------------------------|
E|-----------------------------------------------------------------------------------|

LIVE version chorus:
e|-------5--------5--------------------------------------------------------------|
B|-------5--------7--------------------------------------------------------------|
G|-------6--------7--------------------------------------------------------------|
D|-------7--------7--------------------------------------------------------------|
A|-------7--------5--------------------------------------------------------------|
E|-------5-----------------------------------------------------------------------|

End LIVE version
e|----4---2-----2----0-------------------------------------------------------------|
B|----5---2-----3----0-------------------------------------------------------------|
G|----6---2-----4----1-------------------------------------------------------------|
D|----6---4-----4----2-------------------------------------------------------------|
A|----4---4-----2----2-------------------------------------------------------------|
E|--------2----------0-------------------------------------------------------------|


************************************

| /   slide up
| \   slide down
| h   hammer-on
| p   pull-off
| ~   vibrato
| +   harmonic
| x   Mute note
| b   Bend
| pb  Pre-bend
| br  Bend release
| pbr Pre-bend release
| brb Bend release bend

************************************
Добавлено: 13.05.2012
Другие материалы по этой песне:
  • Аккорды и текст

Страница создана 13.05.2012
http://primanota.ru/monkey-majik/long-shot-penny-chords.htm
Привет, Гость.
Предлагаем пройти революционный курс по гитаре.
Подарок от PrimaNota.Ru, забирай!